>
 >
Will You

Will You Guitar Tabs

P.O.D. - Will You chords, tabs, tablatures, lyrics

Guitar lessons | Add/correct | Request | Top 50 tabs Artists:  A B C D E F G H I J K L M N O P Q R S T U V W X Y Z 0-9

Will You Guitar Tabs – P.O.D.

CD, Sheet music, Poster

Do you like Will You? Share with your friends now
Bass TabsChordsDrum TabsTabsTabs v2Tabs v3Ukulele
Tuning: Drop D - DADGBE


Haven't tabbed the chord rhythms, listen and they're easy enough to pick up.

Order:
Intro/Chorus x2
Verse x4
Intro/Chorus x2
Verse x4
Intro/Chorus x4
Bridge pt 1 x1
Bridge pt 2 x1
Bridge pt 3 x2
Bridge pt 4 x2
Intro/Chorus x4
Outro x2
End x1


Intro/Chorus
E-------------------------------------
B-------5-8--3-3----------------------
G-9-12--5-x--3-3----5-5-5-4-4---------
D-7-x---5-5--3-3--5-----------5-5-----
A-8-12--3----1-1--5---------------3-3-
D-0---------------5-------------------


Verse [chords are played very "choppy"]
E----------------------------------------------------
B----------------------------------------------------
G----------------------------------------------------
D-7-----10-10--8------------5-7-7-7-7-7\3--5-5-5-5-5-5/7-
A-5-7-7--------8-------7-7-5--------------5-------------
D-0------------8-10-10------5--------------5-------------

 
Bridge pt 1 ["Yesterday, yesterday....."]
E---------
B---------
G----8--7-
D-1--x--0-
A-1--6--0-
D-1-----0-


Bridge pt 2
E-----------------
B---6-5-----------
G-7---------4/5-4-
D-------7-5-------
A-----------------
D-----------------


Bridge pt 3
E---0----0------
B---6----3----0-
G---7----3----7-
D---7----3----5-
A---5--1------5-
D-0---------5---


Bridge pt 4 [during build up]
E------------------
B------------------
G-9-12--9-12--3--0-
D------------------
A------------------
D------------------


Outro [slows at end on 2nd time]
E-------------------------------------------
B-----------5-5--5-5--3-3--3-3--------------
G-9-9--9-9--5-5--5-5--3-3--3-3----5-4---5-4-
D-7-7--7-7--5-5--5-5--3-3--3-3--5-----5-----
A-8-8--8-8--3-3--3-3--1-1--1-1--5-----5-----
D-0-0--0-0----------------------5-----5-----


End
E---
B---
G-9-
D-7-
A-8-
D-0-





Comments


Popular P.O.D. tabs & chords
Boom 2 Bass Tabs
Ridiculous Bass Tabs
Alive 5 Tabs
Beautiful Tabs
Can You Feel It? Tabs
Follow Me 1 Tabs
School Of Hard Knocks 3 Tabs
School Of Hard Knocks 4 Tabs
Southtown 1 Tabs
Boom Ukulele


Song lyrics



↑ Back to top | Tablatures and chords are parodies/interpretations of the original songs. You may use it for private study, scholarship, research or language learning purposes only
© 2014 AZChords.com Contact us | Privacy policy | DMCA | Add/correct tabs | Request tabs | Top 50 tabs