>
 >
When Angels And Serpents Dance

When Angels And Serpents Dance Guitar Tabs

P.O.D. - When Angels And Serpents Dance chords, tabs, tablatures, lyrics

Guitar lessons | Add/correct | Request | Top 50 tabs Artists:  A B C D E F G H I J K L M N O P Q R S T U V W X Y Z 0-9

When Angels And Serpents Dance Guitar Tabs – P.O.D.

CD, Sheet music, Poster

Do you like When Angels And Serpents Dance? Share with your friends now
Tabs
                        When Angels And Serpents Dance                          


                                                                          P.O.D.




     PM  PM PM PM PM PM    PM  PM PM PM PM PM    PM  PM PM                    
     E.  E  S  E  E  E     E.  E  S  E  E  E     E.  E  S   S  S  S  S  S  S  
D||---------------------|---------------------|------------------------------|
A||---------------------|---------------------|------------------------------|
F||---------------------|---------------------|------------10-10-10-10-10-10-|
C||---------------------|---------------------|------------10-10-10-10-10-10-|
G||--5---5--5--5--5--5--|---------------------|-------------8--8--8--8--8--8-|
C||---------------------|--5---5--5--5--5--5--|--8---8--8--------------------|


  PM  PM PM                      PM  PM PM PM PM PM    PM  PM PM PM PM PM  
  E.  E  S   S  S  S  S  S  S    E.  E  S  E  E  E     E.  E  S  E  E  E   
------------------------------|---------------------|---------------------|
------------------------------|---------------------|---------------------|
------------10-10-10-10-10-10-|---------------------|---------------------|
------------10-10-10-10-10-10-|---------------------|---------------------|
-------------8--8--8--8--8--8-|--5---5--5--5--5--5--|---------------------|
--8---8--8--------------------|---------------------|--5---5--5--5--5--5--|


  PM  PM PM                      PM  PM PM                    
  E.  E  S   S  S  S  S  S  S    E.  E  S   S  S  S  S  S  S  
------------------------------|------------------------------|
------------------------------|------------------------------|
------------10-10-10-10-10-10-|------------10-10-10-10-10-10-|
------------10-10-10-10-10-10-|------------10-10-10-10-10-10-|
-------------8--8--8--8--8--8-|-------------8--8--8--8--8--8-|
--8---8--8--------------------|--8---8--8--------------------|


  PM  PM PM PM PM PM    PM  PM PM PM PM PM    PM  PM PM                    
  E.  E  S  E  E  E     E.  E  S  E  E  E     E.  E  S   S  S  S  S  S  S  
---------------------|---------------------|------------------------------|
---------------------|---------------------|------------------------------|
---------------------|---------------------|------------10-10-10-10-10-10-|
---------------------|---------------------|------------10-10-10-10-10-10-|
--5---5--5--5--5--5--|---------------------|-------------8--8--8--8--8--8-|
---------------------|--5---5--5--5--5--5--|--8---8--8--------------------|


  PM  PM PM                      PM  PM PM PM PM PM    PM  PM PM PM PM PM  
  E.  E  S   S  S  S  S  S  S    E.  E  S  E  E  E     E.  E  S  E  E  E   
------------------------------|---------------------|---------------------|
------------------------------|---------------------|---------------------|
------------10-10-10-10-10-10-|---------------------|---------------------|
------------10-10-10-10-10-10-|---------------------|---------------------|
-------------8--8--8--8--8--8-|--5---5--5--5--5--5--|---------------------|
--8---8--8--------------------|---------------------|--5---5--5--5--5--5--|


  PM  PM PM                      PM  PM PM                    
  E.  E  S   S  S  S  S  S  S    E.  E  S   S  S  S  S  S  S  
------------------------------|------------------------------|
------------------------------|------------------------------|
------------10-10-10-10-10-10-|------------10-10-10-10-10-10-|
------------10-10-10-10-10-10-|------------10-10-10-10-10-10-|
-------------8--8--8--8--8--8-|-------------8--8--8--8--8--8-|
--8---8--8--------------------|--8---8--8--------------------|


  S S S S S S S S S S S S      S  S  S  S  S  S   S  S  S  S  S  S   
---------------------------|----------------------------------------|
---------------------------|----------------------------------------|
--7-7-7-7-7-7-7-7-7-7-7-7S-|--12-12-12-12-12-12S-14-14-14-14-14-14S-|
--7-7-7-7-7-7-7-7-7-7-7-7S-|--12-12-12-12-12-12S-14-14-14-14-14-14S-|
--5-5-5-5-5-5-5-5-5-5-5-5S-|--10-10-10-10-10-10S-12-12-12-12-12-12S-|
---------------------------|----------------------------------------|


   S  S  S  S  S  S  S  S  S  S  S  S     S  S  S  S  S  S  S  S  S  S  S  S  
--------------------------------------|--------------------------------------|
--------------------------------------|--------------------------------------|
--15-15-15-15-15-15-15-15-15-15-15-15-|--15-15-15-15-15-15-15-15-15-15-15-15-|
--15-15-15-15-15-15-15-15-15-15-15-15-|--15-15-15-15-15-15-15-15-15-15-15-15-|
--13-13-13-13-13-13-13-13-13-13-13-13-|--13-13-13-13-13-13-13-13-13-13-13-13-|
--------------------------------------|--------------------------------------|


  S S S S S S S S S S S S      S  S  S  S  S  S   S  S  S  S  S  S   
---------------------------|----------------------------------------|
---------------------------|----------------------------------------|
--7-7-7-7-7-7-7-7-7-7-7-7S-|--12-12-12-12-12-12S-14-14-14-14-14-14S-|
--7-7-7-7-7-7-7-7-7-7-7-7S-|--12-12-12-12-12-12S-14-14-14-14-14-14S-|
--5-5-5-5-5-5-5-5-5-5-5-5S-|--10-10-10-10-10-10S-12-12-12-12-12-12S-|
---------------------------|----------------------------------------|


                                                        PM  PM PM PM PM PM  
  S S S S S S S S S S S S    S S S S S S S S S S S S    E.  E  S  E  E  E   
--------------------------|--------------------------|---------------------|
--------------------------|--------------------------|---------------------|
--7-7-7-7-7-7-7-7-7-7-7-7-|--7-7-7-7-7-7-7-7-7-7-7-7-|---------------------|
--7-7-7-7-7-7-7-7-7-7-7-7-|--7-7-7-7-7-7-7-7-7-7-7-7-|---------------------|
--5-5-5-5-5-5-5-5-5-5-5-5-|--5-5-5-5-5-5-5-5-5-5-5-5-|--5---5--5--5--5--5--|
--------------------------|--------------------------|---------------------|


  PM  PM PM PM PM PM    PM  PM PM                    
  E.  E  S  E  E  E     E.  E  S   S  S  S  S  S  S  
---------------------|------------------------------|
---------------------|------------------------------|
---------------------|------------10-10-10-10-10-10-|
---------------------|------------10-10-10-10-10-10-|
---------------------|-------------8--8--8--8--8--8-|
--5---5--5--5--5--5--|--8---8--8--------------------|


  PM  PM PM                      PM  PM PM PM PM PM    PM  PM PM PM PM PM  
  E.  E  S   S  S  S  S  S  S    E.  E  S  E  E  E     E.  E  S  E  E  E   
------------------------------|---------------------|---------------------|
------------------------------|---------------------|---------------------|
------------10-10-10-10-10-10-|---------------------|---------------------|
------------10-10-10-10-10-10-|---------------------|---------------------|
-------------8--8--8--8--8--8-|--5---5--5--5--5--5--|---------------------|
--8---8--8--------------------|---------------------|--5---5--5--5--5--5--|


  PM  PM PM                      PM  PM PM                    
  E.  E  S   S  S  S  S  S  S    E.  E  S   S  S  S  S  S  S  
------------------------------|------------------------------|
------------------------------|------------------------------|
------------10-10-10-10-10-10-|------------10-10-10-10-10-10-|
------------10-10-10-10-10-10-|------------10-10-10-10-10-10-|
-------------8--8--8--8--8--8-|-------------8--8--8--8--8--8-|
--8---8--8--------------------|--8---8--8--------------------|


  PM  PM PM PM PM PM    PM  PM PM PM PM PM    PM  PM PM                    
  E.  E  S  E  E  E     E.  E  S  E  E  E     E.  E  S   S  S  S  S  S  S  
---------------------|---------------------|------------------------------|
---------------------|---------------------|------------------------------|
---------------------|---------------------|------------10-10-10-10-10-10-|
---------------------|---------------------|------------10-10-10-10-10-10-|
--5---5--5--5--5--5--|---------------------|-------------8--8--8--8--8--8-|
---------------------|--5---5--5--5--5--5--|--8---8--8--------------------|


  PM  PM PM                      PM  PM PM PM PM PM    PM  PM PM PM PM PM  
  E.  E  S   S  S  S  S  S  S    E.  E  S  E  E  E     E.  E  S  E  E  E   
------------------------------|---------------------|---------------------|
------------------------------|---------------------|---------------------|
------------10-10-10-10-10-10-|---------------------|---------------------|
------------10-10-10-10-10-10-|---------------------|---------------------|
-------------8--8--8--8--8--8-|--5---5--5--5--5--5--|---------------------|
--8---8--8--------------------|---------------------|--5---5--5--5--5--5--|


  PM  PM PM                      PM  PM PM                    
  E.  E  S   S  S  S  S  S  S    E.  E  S   S  S  S  S  S  S  
------------------------------|------------------------------|
------------------------------|------------------------------|
------------10-10-10-10-10-10-|------------10-10-10-10-10-10-|
------------10-10-10-10-10-10-|------------10-10-10-10-10-10-|
-------------8--8--8--8--8--8-|-------------8--8--8--8--8--8-|
--8---8--8--------------------|--8---8--8--------------------|


  S S S S S S S S S S S S      S  S  S  S  S  S   S  S  S  S  S  S   
---------------------------|----------------------------------------|
---------------------------|----------------------------------------|
--7-7-7-7-7-7-7-7-7-7-7-7S-|--12-12-12-12-12-12S-14-14-14-14-14-14S-|
--7-7-7-7-7-7-7-7-7-7-7-7S-|--12-12-12-12-12-12S-14-14-14-14-14-14S-|
--5-5-5-5-5-5-5-5-5-5-5-5S-|--10-10-10-10-10-10S-12-12-12-12-12-12S-|
---------------------------|----------------------------------------|


   S  S  S  S  S  S  S  S  S  S  S  S     S  S  S  S  S  S  S  S  S  S  S  S  
--------------------------------------|--------------------------------------|
--------------------------------------|--------------------------------------|
--15-15-15-15-15-15-15-15-15-15-15-15-|--15-15-15-15-15-15-15-15-15-15-15-15-|
--15-15-15-15-15-15-15-15-15-15-15-15-|--15-15-15-15-15-15-15-15-15-15-15-15-|
--13-13-13-13-13-13-13-13-13-13-13-13-|--13-13-13-13-13-13-13-13-13-13-13-13-|
--------------------------------------|--------------------------------------|


  S S S S S S S S S S S S      S  S  S  S  S  S   S  S  S  S  S  S   
---------------------------|----------------------------------------|
---------------------------|----------------------------------------|
--7-7-7-7-7-7-7-7-7-7-7-7S-|--12-12-12-12-12-12S-14-14-14-14-14-14S-|
--7-7-7-7-7-7-7-7-7-7-7-7S-|--12-12-12-12-12-12S-14-14-14-14-14-14S-|
--5-5-5-5-5-5-5-5-5-5-5-5S-|--10-10-10-10-10-10S-12-12-12-12-12-12S-|
---------------------------|----------------------------------------|


  S S S S S S S S S S S S    S S S S S S S S S S S S  
--------------------------|--------------------------|
--------------------------|--------------------------|
--7-7-7-7-7-7-7-7-7-7-7-7-|--7-7-7-7-7-7-7-7-7-7-7-7-|
--7-7-7-7-7-7-7-7-7-7-7-7-|--7-7-7-7-7-7-7-7-7-7-7-7-|
--5-5-5-5-5-5-5-5-5-5-5-5-|--5-5-5-5-5-5-5-5-5-5-5-5-|
--------------------------|--------------------------|


  S S S S S S S S S S S S      S  S  S  S  S  S   S  S  S  S  S  S   
---------------------------|----------------------------------------|
---------------------------|----------------------------------------|
--7-7-7-7-7-7-7-7-7-7-7-7S-|--12-12-12-12-12-12S-14-14-14-14-14-14S-|
--7-7-7-7-7-7-7-7-7-7-7-7S-|--12-12-12-12-12-12S-14-14-14-14-14-14S-|
--5-5-5-5-5-5-5-5-5-5-5-5S-|--10-10-10-10-10-10S-12-12-12-12-12-12S-|
---------------------------|----------------------------------------|


   S  S  S  S  S  S  S  S  S  S  S  S     S  S  S  S  S  S  S  S  S  S  S  S  
--------------------------------------|--------------------------------------|
--------------------------------------|--------------------------------------|
--15-15-15-15-15-15-15-15-15-15-15-15-|--15-15-15-15-15-15-15-15-15-15-15-15-|
--15-15-15-15-15-15-15-15-15-15-15-15-|--15-15-15-15-15-15-15-15-15-15-15-15-|
--13-13-13-13-13-13-13-13-13-13-13-13-|--13-13-13-13-13-13-13-13-13-13-13-13-|
--------------------------------------|--------------------------------------|


  S S S S S S S S S S S S      S  S  S  S  S  S   S  S  S  S  S  S   
---------------------------|----------------------------------------|
---------------------------|----------------------------------------|
--7-7-7-7-7-7-7-7-7-7-7-7S-|--12-12-12-12-12-12S-14-14-14-14-14-14S-|
--7-7-7-7-7-7-7-7-7-7-7-7S-|--12-12-12-12-12-12S-14-14-14-14-14-14S-|
--5-5-5-5-5-5-5-5-5-5-5-5S-|--10-10-10-10-10-10S-12-12-12-12-12-12S-|
---------------------------|----------------------------------------|


  S S S S S S S S S S S S    S S S S S S S S S S S S     E   E   E  Q.      
--------------------------|--------------------------|---------------------|
--------------------------|--------------------------|---------------------|
--7-7-7-7-7-7-7-7-7-7-7-7-|--7-7-7-7-7-7-7-7-7-7-7-7-|---------------------|
--7-7-7-7-7-7-7-7-7-7-7-7-|--7-7-7-7-7-7-7-7-7-7-7-7-|--12--12--12--0------|
--5-5-5-5-5-5-5-5-5-5-5-5-|--5-5-5-5-5-5-5-5-5-5-5-5-|--12--12--12--0------|
--------------------------|--------------------------|--12--12--12--0------|


   E   E   E  Q.        E  E  E  E  E  E     E  E  E  E  E  E   
---------------------|--------------------|--------------------|
---------------------|--------------------|--------------------|
---------------------|--------------------|--------------------|
--12--12--12--0------|--5--5--5--5--5--5--|--7--7--7--7--7--7--|
--12--12--12--0------|--5--5--5--5--5--5--|--7--7--7--7--7--7--|
--12--12--12--0------|--5--5--5--5--5--5--|--7--7--7--7--7--7--|


   E   E   E  Q.         E   E   E  Q.        E  E  E  E  E  E   
---------------------|---------------------|--------------------|
---------------------|---------------------|--------------------|
---------------------|---------------------|--------------------|
--12--12--12--0------|--12--12--12--0------|--5--5--5--5--5--5--|
--12--12--12--0------|--12--12--12--0------|--5--5--5--5--5--5--|
--12--12--12--0------|--12--12--12--0------|--5--5--5--5--5--5--|


                      Solo                  |-3-|               
  E  E  E  E  E  E      H.               S  S S S S  H          
--------------------|-----------------|------------------------|
--------------------|-----------------|------------------------|
--------------------|-----------------|------------------------|
--7--7--7--7--7--7--|--12~------------|--9-10-9-7-9-10~--------|
--7--7--7--7--7--7--|-----------------|------------------------|
--7--7--7--7--7--7--|-----------------|------------------------|


    H.               S   S   S  E.    S   S   S  E.    
-----------------|------------------------------------|
-----------------|------------------------------------|
-----------------|------------------------------------|
--9g7------------|--14h-15p-14-17~---14h-15p-14-15~---|
-----------------|------------------------------------|
-----------------|------------------------------------|


   S   S   S  E.    S   S   S  E.       S   S  S  S   S  S  S   S  S  S   S  S  
------------------------------------|------------------------------------------|
------------------------------------|------------------------------------------|
------------------------------------|------------------------------------------|
--14h-15p-14-17~---14h-15p-14-15~---|--15S-14-14-14S-12-12-12S-10-10-10S-12-12-|
------------------------------------|------------------------------------------|
------------------------------------|------------------------------------------|


   S   S   H          E      S   S  S  S  S  S  S  S S S S S  
-------------------------|-----------------------------------|
-------------------------|-----------------------------------|
-------------------------|-----------------------------------|
--12h-14p-12~---------L--|--12S-10-10-10-10-10-10S-8-8-8-8-8-|
-------------------------|-----------------------------------|
-------------------------|-----------------------------------|


  S  S S S S S S  S S S S S    S   S  S  S  S  S  S   S  S  S  S  S  
----------------------------|---------------------------------------|
----------------------------|---------------------------------------|
----------------------------|---------------------------------------|
--8S-7-7-7-7-7-7S-8-8-8-8-8-|--8S-10-10-10-10-10-10S-12-12-12-12-12-|
----------------------------|---------------------------------------|
----------------------------|---------------------------------------|


   S   S  S  S  S  S  S   S  S  S  S  S     E.   E.   E.   E.   
----------------------------------------|----------------------|
----------------------------------------|----------------------|
----------------------------------------|----------------------|
--12s-14-14-14-14-14-14S-15-15-15-15-15-|--17---15---14---15---|
----------------------------------------|----------------------|
----------------------------------------|----------------------|


   E.   E.  E.  E.     E.   E.  E.  E.     E.  E.  Q.         E  E  E  E  Q     
--------------------|-------------------|------------------|-------------------|
--------------------|-------------------|------------------|-------------------|
--------------------|-------------------|------------------|-------------------|
--12---10---8---7---|--8---10---8---7---|--5---3---2~------|--0--0--0--0-------|
--------------------|-------------------|------------------|--0--0--0--0-------|
--------------------|-------------------|------------------|--0--0--0--0-------|


  S S S S S S S S S S S S      S  S  S  S  S  S   S  S  S  S  S  S   
---------------------------|----------------------------------------|
---------------------------|----------------------------------------|
--7-7-7-7-7-7-7-7-7-7-7-7S-|--12-12-12-12-12-12S-14-14-14-14-14-14S-|
--7-7-7-7-7-7-7-7-7-7-7-7S-|--12-12-12-12-12-12S-14-14-14-14-14-14S-|
--5-5-5-5-5-5-5-5-5-5-5-5S-|--10-10-10-10-10-10S-12-12-12-12-12-12S-|
---------------------------|----------------------------------------|


   S  S  S  S  S  S  S  S  S  S  S  S     S  S  S  S  S  S  S  S  S  S  S  S  
--------------------------------------|--------------------------------------|
--------------------------------------|--------------------------------------|
--15-15-15-15-15-15-15-15-15-15-15-15-|--15-15-15-15-15-15-15-15-15-15-15-15-|
--15-15-15-15-15-15-15-15-15-15-15-15-|--15-15-15-15-15-15-15-15-15-15-15-15-|
--13-13-13-13-13-13-13-13-13-13-13-13-|--13-13-13-13-13-13-13-13-13-13-13-13-|
--------------------------------------|--------------------------------------|


  S S S S S S S S S S S S      S  S  S  S  S  S   S  S  S  S  S  S   
---------------------------|----------------------------------------|
---------------------------|----------------------------------------|
--7-7-7-7-7-7-7-7-7-7-7-7S-|--12-12-12-12-12-12S-14-14-14-14-14-14S-|
--7-7-7-7-7-7-7-7-7-7-7-7S-|--12-12-12-12-12-12S-14-14-14-14-14-14S-|
--5-5-5-5-5-5-5-5-5-5-5-5S-|--10-10-10-10-10-10S-12-12-12-12-12-12S-|
---------------------------|----------------------------------------|


  S S S S S S S S S S S S    S S S S S S S S S S S S  
--------------------------|--------------------------|
--------------------------|--------------------------|
--7-7-7-7-7-7-7-7-7-7-7-7-|--7-7-7-7-7-7-7-7-7-7-7-7-|
--7-7-7-7-7-7-7-7-7-7-7-7-|--7-7-7-7-7-7-7-7-7-7-7-7-|
--5-5-5-5-5-5-5-5-5-5-5-5-|--5-5-5-5-5-5-5-5-5-5-5-5-|
--------------------------|--------------------------|


  S S S S S S S S S S S S      S  S  S  S  S  S   S  S  S  S  S  S   
---------------------------|----------------------------------------|
---------------------------|----------------------------------------|
--7-7-7-7-7-7-7-7-7-7-7-7S-|--12-12-12-12-12-12S-14-14-14-14-14-14S-|
--7-7-7-7-7-7-7-7-7-7-7-7S-|--12-12-12-12-12-12S-14-14-14-14-14-14S-|
--5-5-5-5-5-5-5-5-5-5-5-5S-|--10-10-10-10-10-10S-12-12-12-12-12-12S-|
---------------------------|----------------------------------------|


   S  S  S  S  S  S  S  S  S  S  S  S     S  S  S  S  S  S  S  S  S  S  S  S  
--------------------------------------|--------------------------------------|
--------------------------------------|--------------------------------------|
--15-15-15-15-15-15-15-15-15-15-15-15-|--15-15-15-15-15-15-15-15-15-15-15-15-|
--15-15-15-15-15-15-15-15-15-15-15-15-|--15-15-15-15-15-15-15-15-15-15-15-15-|
--13-13-13-13-13-13-13-13-13-13-13-13-|--13-13-13-13-13-13-13-13-13-13-13-13-|
--------------------------------------|--------------------------------------|


  S S S S S S S S S S S S      S  S  S  S  S  S   S  S  S  S  S  S   
---------------------------|----------------------------------------|
---------------------------|----------------------------------------|
--7-7-7-7-7-7-7-7-7-7-7-7S-|--12-12-12-12-12-12S-14-14-14-14-14-14S-|
--7-7-7-7-7-7-7-7-7-7-7-7S-|--12-12-12-12-12-12S-14-14-14-14-14-14S-|
--5-5-5-5-5-5-5-5-5-5-5-5S-|--10-10-10-10-10-10S-12-12-12-12-12-12S-|
---------------------------|----------------------------------------|


  S S S S S S S S S S S S    S S S S S S S S S S S S     E   E   E  Q.      
--------------------------|--------------------------|---------------------|
--------------------------|--------------------------|---------------------|
--7-7-7-7-7-7-7-7-7-7-7-7-|--7-7-7-7-7-7-7-7-7-7-7-7-|---------------------|
--7-7-7-7-7-7-7-7-7-7-7-7-|--7-7-7-7-7-7-7-7-7-7-7-7-|--12--12--12--0------|
--5-5-5-5-5-5-5-5-5-5-5-5-|--5-5-5-5-5-5-5-5-5-5-5-5-|--12--12--12--0------|
--------------------------|--------------------------|--12--12--12--0------|


   E   E   E  Q.        E  E  E  E  E  E     E  E  E  E  E  E   
---------------------|--------------------|--------------------|
---------------------|--------------------|--------------------|
---------------------|--------------------|--------------------|
--12--12--12--0------|--5--5--5--5--5--5--|--7--7--7--7--7--7--|
--12--12--12--0------|--5--5--5--5--5--5--|--7--7--7--7--7--7--|
--12--12--12--0------|--5--5--5--5--5--5--|--7--7--7--7--7--7--|


   E   E   E  Q.         E   E   E  Q.        E  E  E  E  E  E   
---------------------|---------------------|--------------------|
---------------------|---------------------|--------------------|
---------------------|---------------------|--------------------|
--12--12--12--0------|--12--12--12--0------|--5--5--5--5--5--5--|
--12--12--12--0------|--12--12--12--0------|--5--5--5--5--5--5--|
--12--12--12--0------|--12--12--12--0------|--5--5--5--5--5--5--|


  E  E  E  E  E  E      E   E   E  E  Q                      
--------------------|----------------------|---------------||
--------------------|----------------------|---------------||
--------------------|----------------------|---------------||
--7--7--7--7--7--7--|--12--12--12--0-------|---------------||
--7--7--7--7--7--7--|--12--12--12--0-------|---------------||
--7--7--7--7--7--7--|--12--12--12--0-------|---------------||




Duration Legend
---------------
W - whole
H - half
Q - quarter
E - 8th
S - 16th
T - 32nd
X - 64th
. - note dotted
|-n-|  - n-tuplets


Tablature Legend
----------------
L - tied note
x - dead note
g - grace note
(n) - ghost note
> - accentuded note
NH - natural harmonic
AH - artificial harmonic
TH - tapped harmonic
SH - semi harmonic
PH - pitch harmonic
h - hammer on
p - pull off
b - bend
br - bendRelease
pb - preBend
pbr - preBendRelease
brb - bendReleaseBend
\n/ - tremolo bar dip
\n - tremolo bar dive
-/n - tremolo bar Release up
/n\ - tremolo bar inverted dip
/n - tremolo bar return
-\n - tremolo bar Release down
S - shift slide
s - legato slide
/ -  slide into from below or out of upwards
\ -  slide into from above or out of downwards
~ - vibrato
W - wide vibrato
tr - trill
TP - tremolo picking
T - tapping
S - slap
P - pop
< - fade in
^ - brush up
v - brush down





Comments


Popular P.O.D. tabs & chords
Without Jah Nothin Bass Tabs
Alive Tabs
Alive Intro Tabs
Bullet The Blue Sky 1 Tabs
Preach Tabs
Satellite Tabs
Southtown 3 Tabs
Tell Me Why 1 Tabs
Tribal Tabs
Youth Of The Nation 4 Tabs


Song lyrics



↑ Back to top | Tablatures and chords are parodies/interpretations of the original songs. You may use it for private study, scholarship, research or language learning purposes only
© 2014 AZChords.com Contact us | Privacy policy | DMCA | Add/correct tabs | Request tabs | Top 50 tabs