>
 >
Teachers

Teachers Guitar Tabs

P.O.D. - Teachers chords, tabs, tablatures, lyrics

Guitar lessons | Add/correct | Request | Top 50 tabs Artists:  A B C D E F G H I J K L M N O P Q R S T U V W X Y Z 0-9

Teachers Guitar Tabs – P.O.D.

CD, Sheet music, Poster

Do you like Teachers? Share with your friends now
Tabs
"Teachers" (Warrior's EP, Vol II version)
  by Payable On Death (P.O.D.)
  The Warrior's EP, Vol II(2005/Atlantic)
  
  
  
  Key:
  #'s  = fret #
  x{#} = fret to palm mute
  #\   = slide down
  #___ = hold note out

  Tuning: Drop-D, down one-step (C-G-C-F-A-D)
  

  Intro:
   gtr 1:
D|-----------------------------------------|-----------------------------------------|
A|-----------------------------------------|-----------------------------------------|
F|-----------------------------------------|-----------------------------------------|
C|-----------------------------------------|-----------------------------------------|
G|--3--------3---------3---------3---------|-5---------5---------5---------5---------|
C|----5--3-5----5--3-5----5--3-5----5--3-5-|----8--5-8----8--3-5----8--5-8----8--3-5-|

   gtr 2: (Listen for strumming; match rythym of gtr 1)
  D|-----------------------|
  A|-----------10----------|
  F|--7--------7-----------|
  C|--5--------7-----------|
  G|--5--------------------|
  C|-----------------------|

   Into Chorus:
  D|--------|
  A|--------|
  F|-7------|
  C|-7-8-5--|
  G|-5-8-5--|
  C|---8-5--|

   Chorus:
D|-------------------------------|-------------------------|-3__3333__3333--||
A|-------------------------------|-------------------------|-3__3333__3333--||
F|-7-77------------333------777--|--10_10101010_10101010---|-5__5555__5555--|| 
C|-5-55-8--8\--------------------|--8__8_8_8_8__8_8_8_8_---|-5__5555__5555--||
G|-5-55-8--8\---------x{555}-----|--6__6_6_6_6__6_6_6_6_---|-3__3333__3333--||
C|------8--8\x{111}--------------|-------------------------|----------------||

   Post Chorus: (Listen for strumming; match rythym of bass, but play sustained)
  D|-----------------------|
  A|-----------10----------|
  F|--7--------7-----------|
  C|--5--------7-----------|
  G|--5--------------------|
  C|-----------------------|

   Bridge:
  D|-------------------------------------------|
  A|-------------------------------------------|
  F|-7-3----5______--7-3---5__-----------------|
  C|-7-3-5--5______--7-3-5-5__5__3_5__---------|
  G|-5-1-5--3______--5-1-5-3__5__3_5__---------|
  C|-----5---------------5----5__3_5__---------|(x3,then:)

  D|-------------------------------------------||
  A|-------------------------------------------||
  F|-7-3----5______--7-3---5__-----------------||
  C|-7-3-5--5______--7-3-5-5__5__3____---------||
  G|-5-1-5--3______--5-1-5-3__5__3____---------||
  C|-----5---------------5----5__3____---------||

   Build up: (start palm muted, then gradually un-palm mute it)
  D|-----------------------------------------||
  A|-----------------------------------------||
  F|-----------------------------------------||
  C|-----------------------------------------||
  G|--3--------3---------3---------3---------||
  C|----5--3-5----5--3-5----5--3-5----5--3-5-||

  D|--------|
  A|--------|
  F|-7------|
  C|-7-8-5--|
  G|-5-8-5--|
  C|---8-5--|

  Outro:

   gtr 1:
  D|-----------------------------------------||
  A|-----------------------------------------||
  F|-----------------------------------------||
  C|-----------------------------------------||
  G|--3--------3---------3---------3---------||
  C|----5--3-5----5--3-5----5--3-5----5--3-5-||

  D|--------------------------||
  A|--------------------------||
  F|--------------------------||
  C|--------------53_________-||
  G|--3-----------53_________-||
  C|----5--3-x{3}-53_________-||

   gtr 2: (Listen for strumming; match rythym of gtr 1)
  D|-----------------------|
  A|-----------10----------|
  F|--7--------7-----------|
  C|--5--------7-----------|
  G|--5--------------------|
  C|-----------------------|





Comments


Popular P.O.D. tabs & chords
Alive 3 Bass Tabs
Bullet The Blue Skies Bass Tabs
Celestial Bass Tabs
Follow Me Bass Tabs
Brown Tabs
Bullet The Blue Sky Tabs
It Cant Rain Everyday Tabs
Lights Out 3 Tabs
Ridiculous Tabs
Sleeping Awake Tabs


Song lyrics



↑ Back to top | Tablatures and chords are parodies/interpretations of the original songs. You may use it for private study, scholarship, research or language learning purposes only
© 2014 AZChords.com Contact us | Privacy policy | DMCA | Add/correct tabs | Request tabs | Top 50 tabs