» » »

Sleeping Awake Tabs (ver.3)

Artists:  A B C D E F G H I J K L M N O P Q R S T U V W X Y Z # 

Sleeping Awake Tabs (ver.3)

P.O.D.
Rating:
0/5 (0 votes)

Hard to play? Try these video lessons and learn fast.
                verse:

E-----------------------------------------------------------
H-----------------------------------------------------------
G--7-7-7-7-------7-7-7-7--------8-8-8-8---------------------
D--7-7-7-7-------7-7-7-7--------8-8-8-8------10-10-10-8-10--
A--5-5-5-5-------5-5-5-5--------6-6-6-6-------8--8--8-6--8--
D---------0-0-0-0-------0-0-0-0--------0-0-0-0--------------
          reveal        to me       the mystery...   

x4

chorus:

E-------------------------
H-------------------------
G-------------6-6---------
D-7-7---3-3---6-6---8-8---
A-5-5---3-3---4-4---8-8---
D-0-0---3-3---------8-8---

x4

after some time (maybe a second) guitar plays:

E-------------------------------------
H-------------------------------------
G-------------------------------------
D--14---14--14-------13------13-------
A---------15--15---15----------15-13--
D-------------------------------------

x2

bridge:

E---------------------------------------
H------6-------------------4------------
G-------7-------------------6-----------
D----7---7-------5-------6---6----8-----
A--5----------3----3---4---------8--8---
D-----------3--3----3-----------8----8--

solo:(with effects)

E------------------------------------------------
H------------------------------------------------
G-------------------------------------------------
D-------------------------------------------------
A--15--------15-11-15-13-12-15------15-11-15-13-12
D-------15--------------------15------------------
            
Hard to play? Try these video lessons and learn fast. | Correct




comments powered by Disqus
↑ Back to top | Tablatures and chords are parodies/interpretations of the original songs. You may use it for private study, scholarship, research or language learning purposes only