» » »

Sleeping Awake Tabs (ver.2)

Artists:  A B C D E F G H I J K L M N O P Q R S T U V W X Y Z # 

Sleeping Awake Tabs (ver.2)

P.O.D.
Rating:
0/5 (0 votes)

Tabs too difficult? Try these video lessons and learn fast.
                GUITAR TAB

SLEEPING AWAKE
--------------
Artist - P.O.D.
Album - The Matrix Reloaded Soundtrack
Guitarist - Jason Truby
____________________________________________________________________________________

VERSE [Distortion]
D -------------------------|-------------------------|
A -------------------------|-------------------------|
F -9-9---9---9-------------|-9-9---9---9-------------|
C -x-x---x---x-------------|-x-x---x---x-------------|
G -7-7---7---7-------------|-7-7---7---7-------------|
D -------------0---0---0---|-------------0---0---0---|
   1 + 2 + 3 + 4 + 5 + 6 + | 1 + 2 + 3 + 4 + 5 + 6 + |

D -------------------------|-------------------------|
A -------------------------|-------------------------|
F -1010--10--10------------|-------------------------|
C -x-x---x---x-------------|-5-----5-----3-----3-----|
G -8-8---8---8---------x-x-|-5-----5-----3-----3-----|
D -------------1---1---x-x-|-3-----3-----1-----1-----|
   1 + 2 + 3 + 4 + 5 + 6 + | 1 + 2 + 3 + 4 + 5 + 6 + |

CHORUS [Distortion]
D -------------------------|-------------------------|
A -------------------------|-------------------------|
F -------------------------|-------------------------|
C -2-----------2-----------|-5-----------5-----------|
G -2-----------2-----------|-5-----------5-----------|
D -0-----------0-----------|-3-----------3-----------|
   1 + 2 + 3 + 4 + 5 + 6 + | 1 + 2 + 3 + 4 + 5 + 6 + |

D -------------------------|-------------------------|
A -------------------------|-------------------------|
F -8-----------8-----------|-5-----------5-----------|
C -8-----------8-----------|-3-----------5-----------|
G -6-----------6-----------|-3-----------3-----------|
D -6-----------6-----------|-3-----------3-----------|
   1 + 2 + 3 + 4 + 5 + 6 + | 1 + 2 + 3 + 4 + 5 + 6 + |

D -------------------------|-------------------------|
A -------------------------|-------------------------|
F -9-9---9---9-9---7---9---|-1212--12--1212--12--12--|
C -x-x---x---x-x---x---x---|-x-x---x---x-x---x---x---|
G -7-7---7---7-7---5---7---|-1010--10--1010--10--10--|
D -------------------------|-------------------------|
   1 + 2 + 3 + 4 + 5 + 6 + | 1 + 2 + 3 + 4 + 5 + 6 + |

D -------------------------|-------------------------|
A -------------------------|-------------------------|
F -1515--15--1515--15--15--|-5-5---5---5-5---5---5---|
C -x-x---x---x-x---x---x---|-x-x---x---x-x---x---x---|
G -1313--13--1313--13--13--|-3-3---3---3-3-3-3---3---|
D -------------------------|-------------------------|
   1 + 2 + 3 + 4 + 5 + 6 + | 1 + 2 + 3 + 4 + 5 + 6 + |

BRIDGE [Distortion]
D -------------------------|-------------------------|
A -------------------------|-------------------------|
F -5----LET----------------|-------------------------|
C -5----RING---------------|-------------------------|
G -3-----------------------|-------------------------|
D -3-----------------------|-------------------------|
   1 + 2 + 3 + 4 + 5 + 6 + | 1 + 2 + 3 + 4 + 5 + 6 + |

[Clean]
D -------------------------|-------------------------|
A -------------------------|-------------------------|
F -------------4-----------|-------------------------|
C -----------2-----2-------|-------------5-----------|
G -------2-------------2---|-------5---------5-------|
D -0-----------------------|-3---------3---------3---|
   1 + 2 + 3 + 4 + 5 + 6 + | 1 + 2 + 3 + 4 + 5 + 6 + |

D -------------------------|-------------------------|
A -------------9-----------|-------------------------|
F -----------8-----8-------|-------------5-----------|
C -------8-------------8---|-------5---------5-------|
G -6-----------------------|-3---------3---------3---|
D -------------------------|-------------------------|
   1 + 2 + 3 + 4 + 5 + 6 + | 1 + 2 + 3 + 4 + 5 + 6 + |

[Distorted]
D -------------------------|-------------------------|
A -------------------------|-------------------------|
F -9-9-9-9-9-9-9-9-7-7-9-9-|-121212121212121212121212|
C -x-x-x-x-x-x-x-x-x-x-x-x-|-x-x-x-x-x-x-x-x-x-x-x-x-|
G -7-7-7-7-7-7-7-7-5-5-7-7-|-101010101010101010101010|
D -------------------------|-------------------------|
   1 + 2 + 3 + 4 + 5 + 6 + | 1 + 2 + 3 + 4 + 5 + 6 + |

D -------------------------|-------------------------|
A -------------------------|-------------------------|
F -151515151515151515151515|-171717171717161616161616|
C -x-x-x-x-x-x-x-x-x-x-x-x-|-x-x-x-x-x-x-x-x-x-x-x-x-|
G -131313131313131313131313|-151515151515141414141414|
D -------------------------|-------------------------|
   1 + 2 + 3 + 4 + 5 + 6 + | 1 + 2 + 3 + 4 + 5 + 6 + |

D -------------------------|-------------------------|
A -------------------------|-------------------------|
F -9-9-9-9-9-9-9-9-7-7-9-9-|-121212121212121212121212|
C -x-x-x-x-x-x-x-x-x-x-x-x-|-x-x-x-x-x-x-x-x-x-x-x-x-|
G -7-7-7-7-7-7-7-7-5-5-7-7-|-101010101010101010101010|
D -------------------------|-------------------------|
   1 + 2 + 3 + 4 + 5 + 6 + | 1 + 2 + 3 + 4 + 5 + 6 + |

D -------------------------|-------------------------|
A -------------------------|-------------------------|
F -151515151515151515151515|-171717171717171717171717|
C -x-x-x-x-x-x-x-x-x-x-x-x-|-x-x-x-x-x-x-x-x-x-x-x-x-|
G -131313131313131313131313|-151515151515151515151515|
D -------------------------|-------------------------|
   1 + 2 + 3 + 4 + 5 + 6 + | 1 + 2 + 3 + 4 + 5 + 6 + |

OUTRO
 |--------Repeat-3x--------|
D -------------------------|---|
A -------------------------|---|
F -------------------------|---|
C [P.M.-------]------------|-2-|
G -2-2---2---2-5---2---5---|-2-|
D -0-0---0---0-3---0---3---|-0-|
   1 + 2 + 3 + 4 + 5 + 6 + |

END

NOTE:
GREAT song from the boys, I think I've covered everything here, there's a slight second guitar bit missing from the bridge that I couldn't be
bothered figuring out. I haven't bothered with any song structure either, that should be easy enough if you know the song, and yes, the song 
            
Tabs too difficult? Try these video lessons and learn fast.




comments powered by Disqus
↑ Back to top | Tablatures and chords are parodies/interpretations of the original songs. You may use it for private study, scholarship, research or language learning purposes only