» » »

P.O.D., Set It Off Tabs (ver.3)

Artists:  A B C D E F G H I J K L M N O P Q R S T U V W X Y Z # 

Set It Off Tabs (ver.3)

P.O.D. Tabs
 Rating:
4/5 (4 votes)
Set It Off lessons Tabs too difficult? Try these video lessons and learn fast
                
Intro: 
d----------------------------------------------------
a----------------------------------------------------
f--7-7-7-7-----7-7-7-7-------------------------------
C--7-7-7-7--0--7-7-7-7--0--3-3-3-3--3h5--2-2-2-2--2h3
G--5-5-5-5--0--5-5-5-5--0--3-3-3-3--3h5--2-2-2-2--2h3
C-----------0-----------0--3-3-3-3--3h5--2-2-2-2--2h3

Verses: Fast Rythme but take your time and make it clean
d-----------8-----8------
a------6-5----6-----6----
f----7----------7-----7--
C--5---------------------x2
G------------------------
C------------------------

d--------------------------
a--------6--5--5-6----5-6--
f------7-----------7------7
C----7---------------------x2 got back ^ and repeat
G--5-----------------------
C--------------------------


Pre-Chorus: really Clean
d------------------------
a------------------------
f------------------------
C----0-------------0-----x2
G---0---0--0--0--0---0---
C--0---1--3--5--7-----7--

Chorus: 
d------------
a------------
f------------
C--0--0-3-0--x8
G--0--0-3-0--
C--0--0-3-0--

I don't have the solo! sorry.. coming soon.


d-------------------
a-------------------
f-------------------
C--0--1-3-5-7-7-7-7-
G--0--1-3-5-7-7-7-7-
C--0--1-3-5-7-7-7-7-


d------------------------
a------------------------
f-----------9-9-9--9-9-9-
C--0--1-3-5-x-x-x--x-x-x-
G--0--1-3-5-7-7-7--7-7-7-
C--0--1-3-5--------------
            
Submit corrections

comments powered by Disqus
↑ Back to top | P.O.D. Tabs for Set It Off. Lyrics for acoustic guitar and electric guitar. Tablatures and chords are parodies/interpretations of the original songs. You may use it for private study, scholarship, research or language learning purposes only