» » »

Satellite Bass tabs (ver.2)

Artists:  A B C D E F G H I J K L M N O P Q R S T U V W X Y Z # 

Satellite Bass tabs (ver.2)

P.O.D.
Rating:
0/5 (0 votes)

Tabs too difficult? Try these video lessons and learn fast.
                Band- POD
Song- Satellite

Legend
(0) hold note
5* harmonics
3/5 slide
9^ bend
x mute
7~~ vibrato

Intro
G--------------------------------------------------------|
D--------------------------------------------------------|
A--------------------------------------------------------|
E--------------------------------------------------------|
B-0---(0)---3---(3)---2---(2)---3-3-3-3-3-3-3-3-3-3-3-3--|

Chorus
G------------------------------------------------------------------|
D------------------------------------------------------------------|
A------------------------------------------------5*5*5*5*----------|
E-----------------------------------------5*5*5*----------5*5*5*---|
B-7-7-7-0-7-7-0-7-7-0-7-0-7-7-5-5-5-0-5-5--------------------------|

G-------------------------------------------------|
D-------------------------------------------------|
A-------------------------------------------------|
E-----------------------------3-5-6-7~-7-6-5-3~---|
B-3-3-3-0-3-3-0-3-3-0-3-0-3-0---------------------|

Verse
G------------------------------------------------------------|
D------------------------------------------------------------|
A------------------------------------------------------------|
E--------2---2---2-------3-3-3--------2----2---2------3-3-3--|
B-0-0-0----0---0---0-0-0--------3-3-3---3---3---3-3-3--------|

G------------------------------------------------------------|
D------------------------------------------------------------|
A------------------------------------------------------------|
E-------2---2---2-------3-3-3---------2---2---2-------3-3-3--|
B-2-2-2---2---2---2-2-2---------3-3-3---3---3---3-3-3--------|

Solo                                                                x2
G----------------------------------------------------------------------|
D----------------------------------------------------------------------|
A----------------------------------------------------------------------|
E-3/5-5-5-6-6-6-6-7-7-7-7-7-7-7---9^-9-9^-9-9^-9-9^-9-9^-9-9^-9-9^-9---|
B----------------------------------------------------------------------|
                                                                    x2
G----------------------------------------------------------------------|
D----------------------------------------------------------------------|
A-7^-7-7-5-5-5-5-3-3-3-2-2-2-2---3^-3-3^-3-3^-3-3^-3-3^-3-3^-3-3^-3----| 
E----------------------------------------------------------------------|
B----------------------------------------------------------------------|

Outro
G--------------------------------------------------------------------------|
D--------------------------------------------------------------------------|
A--------------------------------------------------------------------------|
E--------------------------------------------------------------------------|
B-0---(0)---x3---(3)---x2---(2)---x3---(3)---2222222222223-----3-2---(2)---|

G -----------------------------------------|
D------------------------------------------|
A-------------------------5~~~~~~~~~~~~----|
E------------------------------------------|
B---3333333333333333--0--------------------|
            
Tabs too difficult? Try these video lessons and learn fast.


comments powered by Disqus
↑ Back to top | Tablatures and chords are parodies/interpretations of the original songs. You may use it for private study, scholarship, research or language learning purposes only