» » »

Satellite Bass tabs (ver.1)

Artists:  A B C D E F G H I J K L M N O P Q R S T U V W X Y Z # 

Satellite Bass tabs (ver.1)

P.O.D.
Rating:
0/5 (0 votes)

Tabs too difficult? Try these video lessons and learn fast.
                (4String)

(x?) = how many times to repeat the last measure
h = let ring


 (0:00) Intro & Verse                                        (5x)  (0:59)  
G/---------------------------------------------------------|----------|
D/---------------------------------------------------------|----------|
A/---5-----------1------------------------1----------------|-1--------|
E/----------------------------3----------------------------|----------|

 (1:02) (Chorus) As I look up to the sky today...
G/---------------------------------------------------------|
D/---------------------------------------------------------|
A/--3-55(x5)---1-33-1-3h-------------1111111111111111------|
E/------------------------1-33(x5)-------------------------|

 (1:26) Its truly one of a kind...      Repeat until (2:28)
G/---------------------------------------------------------|----------|
D/---------------------------------------------------------|----------|
A/---5-----------1------------------------1----------------|-1--------|
E/----------------------------3----------------------------|----------|

(2:28) (Chorus)(2x)

(2:52) (outro) 
G/---------------------------------------------------------|
D/---------------------------------------------------------|
A/---5-----------1------------------------1----------------|
E/----------------------------3----------------------------|

Yeah, this is a wicked kick @$$ song. its also my first tab,so if it sucks, thats understandable. so yeah, have fun lkistenin to this, and keep on BASSIN! :)
            
Tabs too difficult? Try these video lessons and learn fast.




comments powered by Disqus
↑ Back to top | Tablatures and chords are parodies/interpretations of the original songs. You may use it for private study, scholarship, research or language learning purposes only