>
 >
Satellite 2

Satellite 2 Guitar Tabs

P.O.D. - Satellite 2 chords, tabs, tablatures, lyrics

Guitar lessons | Add/correct | Request | Top 50 tabs Artists:  A B C D E F G H I J K L M N O P Q R S T U V W X Y Z 0-9

Satellite 2 Guitar Tabs – P.O.D.

CD, Sheet music, Poster

Do you like Satellite 2? Share with your friends now
Bass TabsTabsTabs v2Tabs v3
Satellite -  Payable on Death




	

	This is an extremely kick-ass song and it
is as fun to play as it is great!!!


1=D                      Key:      
2=A                      pm. = palm mute b = bend
3=F                      h   = hammer on r = release
4=C                      pb  = prebend
5=G
6=C

Intro/verse.

|---------------------------------------------------------------------|
|---------------------------------------------------------------------|
|--------7-7-7-------7-7-7-----7---------4-4-4-------4-4-4-----4------|
|--------9-9-9-------9-9-9-----9---------5-5-5-------5-5-5-----5------|
|--7-7-7-------7-7-7-------7-7---7-3-3-3-------3-3-3-------3-3---3----|
|---------------------------------------------------------------------|
pm . . .       . . .       . .   . . . .       . . .       . .   .

|--------------------------------------------------------------|
|--------------------------------------------------------------|
|--------4-4-4-------4-4-4-----4-------4--4--4--4---4--4-------|
|--------5-5-5-------5-5-5-----5-------5--5--5--5---5--5-------|
|--2-2-2-------2-2-2-------2-2----5-5--------------------------|
|--------------------------------------------------------------|


Intro part2/Chorus
|-----------------------------------------------------------10-10-10-10-------|
|-----------------------------------------------10-10-10-10-------------10-7--|
|-----------------------------------------------------------------------------|
|-12h14-12h14-12h14-12h14-12h14-14-9h10-10-10-10------------------------------|
|-12h14-12h14-12h14-12h14-12h14-14-9h10-10-10-10------------------------------|
|-12h14 12h14-12h14-12h14-12h14-14-9h10-10-10-10------------------------------|

|---------------------------------------------------|
|---------------------------------------------------|
|---------------------------------------------------|
|--5h7-7-7--7-7--7-7----------5/7---5---------------|
|--5h7-7-7--7-7--7-7--------7----------7------------|
|--5h7-7-7--7-7--7-7----5h7---------------5---------|


interlude bit
|-----------------------------------------------------------------------------|
|-----------------------------------------------------------------------------|
|-7/9-9-9/11-11-11/13-13-13/14-14-14/16-16-16h7p16h17p16...----------------------|
|--------------------------------------------------------x\-------------------|
|--------------------------------------------------------x\-------------------|
|-----------------------------------------------------------------------------|
 


this just kind of blends in.
 Listen carefully and ya just
 be able to hear it.
|-----------------------------------------------------------------------------|
|-----------------------------------------------------------------------------|
|----14pb16-16-16r14--11h12-11---14-16--16-17-16-17-16-17...------------------|
|-----------------------------------------------------------------------------|
|-----------------------------------------------------------------------------|
|-----------------------------------------------------------------------------|


Outro
|----------------------------------------------------19b-19b-19b--------------|
|-----------------------------------------------------------------------------|
|---------12h13-13hold............b16--15h16-16---17--------------------------|
|-----------------------------------------------------------------------------|
|-----------------------------------------------------------------------------|
|-----------------------------------------------------------------------------|

|-----7---10---10b12r--7----10--12-----------------------7----|
|----------------------------------12brbr--10---8--7-----7----|
|--------------------------------------------------------7----|
|-------------------------------------------------------------|
|-----------------------------------------------------7-------|
|-------------------------------------------------------------|


Okay that sounds just about right. I think i may have
made a few mistakes on the outro but it doesnt sound bad.

Have fun!





Comments


Popular P.O.D. tabs & chords
Rise Against Bass Tabs
Set It Off 2 Bass Tabs
Sleeping Awake 4 String Bass Tabs
The Messenjah Drum Tabs
Kaliforn-eye-a Tabs
Southtown 3 Tabs
Teachers Tabs
Tribal 1 Tabs
Trible Tabs
Youth Of The Nation 6 Tabs


Song lyrics



↑ Back to top | Tablatures and chords are parodies/interpretations of the original songs. You may use it for private study, scholarship, research or language learning purposes only
© 2014 AZChords.com Contact us | Privacy policy | DMCA | Add/correct tabs | Request tabs | Top 50 tabs