» » »

P.O.D., Sabbath Tabs (ver.1)

Artists:  A B C D E F G H I J K L M N O P Q R S T U V W X Y Z # 

Sabbath Tabs (ver.1)

P.O.D. Tabs
 Rating:
4/5 (4 votes)
Sabbath lessons Tabs too difficult? Try these video lessons and learn fast
                -------------------------------------------------------------------------------
-------------------------------------------------------------------------------

Tuning: Drop D

This is a really good instrumental, and very easy to play.


************************************

| /   slide up
| \   slide down
| h   hammer-on
| p   pull-off
| ~   vibrato
| +   harmonic
| x   Mute note
| b   Bend
| *   Palm Mute

************************************

Into
e|------------------------------------------------------------------------|
B|------------------------------------------------------------------------|
G|------------------------------0-----------------------------------------|
D|--2-2-2-3-2--2-2-2-3-2--2-2-2---3-2-0--2-2-2-3-2--2-2-2-3-2--2-2-2-3-2--|
A|--2-2-2------2-2-2------2-2-2----------2-2-2------2-2-2------2-2-2------|
D|--2-2-2------2-2-2------2-2-2----------2-2-2------2-2-2------2-2-2------|

e|----------------------------|
B|----------------------------|
G|--------0-------------------|
D|--2-2-2---3-2-0--2-2-2-3-2--|
A|--2-2-2----------2-2-2------|
D|--2-2-2----------2-2-2------|

Riff 1
e|-------------------------------------------|
B|-------------------------------------------|
G|--99-9-99-9-99-9-99-9-99-9-99-9-99-9-99-9--|
D|--99-9-99-9-99-9-99-9-99-9-99-9-99-9-99-9--|
A|--77-7-77-7-77-7-77-7-77-7-77-7-77-7-77-7--|
D|-------------------------------------------|

riff 2
e|----------------------|
B|----------------------|
G|----------------------| 8x
D|--2-2-2-2--2-2-xx-xx--|
A|--2-2------2-2-xx-xx--|
D|--2-2------2-2-xx-xx--|

e|---------|
B|---------|
G|---------|
D|--2------|
A|--2------|
D|--2------|

Riff 3
e|--------------------------|
B|--------------------------|
G|--------------------------| 5x  
D|--2-2-2-2----2-2-2-2-2p0--| the first time threw
A|--2-2-2------2-2-2--------| it as a weird affect on it. 
D|--2-2-2------2-2-2--------|

Riff 4
e|---------------------------------------------|
B|---------------------------------------------|
G|---------------------------------------------|
D|--222222-2-22222222-2-22222222-2--2-2-2-0----|
A|--222222---22222222---22222222----2-2-2---2--|
D|--222222---22222222---22222222----2-2-2------|
    ******   ********   ********

Riff 5
e|--------------------------|
B|--------------------------|
G|--------------------------| 4x
D|--2-2-2-2----2-2-2-2-2p0--|
A|--2-2-2------2-2-2--------|
D|--2-2-2------2-2-2--------|

Riff 4
e|---------------------------------------------|
B|---------------------------------------------|
G|---------------------------------------------|
D|--222222-2-22222222-2-22222222-2--2-2-2-0----|
A|--222222---22222222---22222222----2-2-2---2--|
D|--222222---22222222---22222222----2-2-2------|
    ******   ********   ********

Riff 1
e|-------------------------------------------|
B|-------------------------------------------|
G|--99-9-99-9-99-9-99-9-99-9-99-9-99-9-99-9--| 2x
D|--99-9-99-9-99-9-99-9-99-9-99-9-99-9-99-9--|
A|--77-7-77-7-77-7-77-7-77-7-77-7-77-7-77-7--|
D|-------------------------------------------|

Riff 2
e|----------------------|
B|----------------------|
G|----------------------| 8x
D|--2-2-2-2--2-2-xx-xx--|
A|--2-2------2-2-xx-xx--|
D|--2-2------2-2-xx-xx--|

Ending
e|------------------------------------------------------------|
B|------------------------------------------------------------|
G|------------------------------------------------------------|
D|--222222-2--22222222-2--22222222-2--2222-2-2-2-0----2-------|
A|--222222-2--22222222-2--22222222-2--2222-2-2-2---2--2-------|
D|--222222-2--22222222-2--22222222-2--2222-2-2-2------2-------|
    ******    ********    ********    ****
            
Submit corrections

comments powered by Disqus
↑ Back to top | P.O.D. Tabs for Sabbath. Lyrics for acoustic guitar and electric guitar. Tablatures and chords are parodies/interpretations of the original songs. You may use it for private study, scholarship, research or language learning purposes only