» » »

Rock The Party (Off The Hook) Bass tabs (ver.1)

Artists:  A B C D E F G H I J K L M N O P Q R S T U V W X Y Z # 

Rock The Party (Off The Hook) Bass tabs (ver.1)

P.O.D.
Rating:
0/5 (0 votes)

Hard to play? Try these video lessons and learn fast.
                Intro/Verse
F----------------------------------7--------5---------------
C------5-----7-----5-----------7h9---9--5h7---7-------------
G--5h7---7-----5h7---7--------------------------------------
D----------------------0-0-0-0--------------------3-3-------

Play this 4 times.
F----------------------------------7--------5---------------
C------5-----7-----5-----------7h9---9--5h7---7-------------
G--5h7---7-----5h7---7--------------------------------------
D----------------------0-0-0-0--------------------3-3-------

Then play this
F----------------------------------------------------------------
C----------------------------------------------------------------
G--------------------------------5-5--5-5------------------------
D--0-0-0-0--0-0-0-0-0--0-3p0-3p0-----------7-5-5-5-5--0-5-5-7-7--

After that part play this 3 more times. 
F----------------------------------7--------5---------------
C------5-----7-----5-----------7h9---9--5h7---7-------------
G--5h7---7-----5h7---7--------------------------------------
D----------------------0-0-0-0--------------------3-3-------


Then comes this fill..

Bass fill 1                                               x1
F-----------------------------------------------------------
C-----------------------------------------------------------
G-----------------------------------------------------------
D--0-----------------------------------3--3/15\0------------

Interlude                                                       x7
F-----------7------7---7-------------7----7-----7-----7---------------
C---------------------------------------------------------------------
G---------------------------------------------------------------------
D--0-0-0-0-----0-0---0---0--3p0--3p0---0-0--0-0---0-0---0-0-3p0--3p0--

For the Chorus, play the verse 4 times, then later on play the bass fill 1, make sure
you listen for when this happens.
F----------------------------------7--------5---------------
C------5-----7-----5-----------7h9---9--5h7---7-------------
G--5h7---7-----5h7---7--------------------------------------
D----------------------0-0-0-0--------------------3-3-------

then

F-----------------------------------------------------------
C-----------------------------------------------------------
G-----------------------------------------------------------
D--0-----------------------------------3--3/15\0------------

For the 2nd chorus, play the verse 4 times
F----------------------------------7--------5---------------
C------5-----7-----5-----------7h9---9--5h7---7-------------
G--5h7---7-----5h7---7--------------------------------------
D----------------------0-0-0-0--------------------3-3-------

At the very end play
F--------
C--------
G--------
D--0-----

Thats all! Enjoy this tab!
            
Hard to play? Try these video lessons and learn fast. | Correct




comments powered by Disqus
↑ Back to top | Tablatures and chords are parodies/interpretations of the original songs. You may use it for private study, scholarship, research or language learning purposes only