>
 >
Panic And Run

Panic And Run Guitar Tabs

P.O.D. - Panic And Run chords, tabs, tablatures, lyrics

Guitar lessons | Add/correct | Request | Top 50 tabs Artists:  A B C D E F G H I J K L M N O P Q R S T U V W X Y Z 0-9

Panic And Run Guitar Tabs – P.O.D.

CD, Sheet music, Poster

Do you like Panic And Run? Share with your friends now
Tabs
P.O.D.: Panic & Run




Tuning: Drop D (D,A,D,G,B,E)

Riff 1 (intro)
E|-----------------------------------------------------------|
B|-----------------------------------------------------------|
G|-7-7-7-7-7-7-7-7-7-7-7-7-7-7-7-----------------------------|
D|-7-7-7-7-7-7-7-7-7-7-7-7-7-7-7-5---10---7--7-7-7-7-7-7-7-0-|
A|-5-5-5-5-5-5-5-5-5-5-5-5-5-5-5-5---10---7--7-7-7-7-7-7-7-0-|
D|-------------------------------5-0-10-0-7--7-7-7-7-7-7-7-0-|
     * * * * * *

E|------------------------------------------------------------|
B|------------------------------------------------------------|
G|------------------------------------------------------------|
D|-3--3-3-3-3-3-3-3-3-3-3-3-3-3-3-5---10---7--7-7-7-7-7-7-7-0-|
A|-3--3-3-3-3-3-3-3-3-3-3-3-3-3-3-5---10---7--7-7-7-7-7-7-7-0-|
D|-3--3-3-3-3-3-3-3-3-3-3-3-3-3-3-5-0-10-0-7--7-7-7-7-7-7-7-0-|

Play Riff 1 x2 (after the first time, play this riff without the palm-mutes
                every other time it's played)

Riff 2   "What a wicked generation..."
E|---5--5--5--------5--5--5--------3--3--3--------3--3--3------|
B|---6--6--6--------5--5--5--------3--3--3--------5--5--5------|
G|---7--7--7--------7--7--7--------5--5--5--------5--5--5------|
D|-0----------7-5-7----------7-6-5----------5-3-2----------2-3-|
A|-------------------------------------------------------------|
D|-------------------------------------------------------------|

Riff 2 note: Ska-esque riff here, so play those chords on the upstroke.

Play Riff 2 x2

Riff 3   "So close your mind look away and carry on..."
E|---5--3~------5--3~----|
B|---6--5~------6--5~----|
G|---7--5~------7--5~----|
D|-0----------0----------|
A|-----------------------|
D|-----------------------|

Riff 3 note: Again, hit those chords on the upstroke.

Play Riff 3 x2
Play Riff 1 x2   "The sky is falling haven't you heard..."
Play Riff 2 x2   "Propaganda, media, persuasion..."
Play Riff 3 x2   "The world is ending remember I told you so..."
Play Riff 1 x2   "The sky is falling haven't you heard..." 

Riff 4
E|---------------------------------------------------------------|
B|---------------------------------------------------------------|
G|---------------------------------------------------------------|
D|-0-0-0-0-0-0-0-0-0-0-0-0-0-0-0-1-1-1-3-3-3-5-5-5-6-6-6-6-6-6-6-|
A|-0-0-0-0-0-0-0-0-0-0-0-0-0-0-0-1-1-1-3-3-3-5-5-5-6-6-6-6-6-6-6-|
D|-0-0-0-0-0-0-0-0-0-0-0-0-0-0-0-1-1-1-3-3-3-5-5-5-6-6-6-6-6-6-6-|
     * * * * * * * * * * * * * *

Play Riff 4 x2 (w/ palm-mutes)
Play Riff 4 x3 (w/o palm-mutes)

Riff 4 (final time)
E|----------------------------------------------------|
B|----------------------------------------------------|
G|----------------------------------------------------|
D|-0-0-0-0-0-0-0-0-0-0-0-0-0-0-0-1-----3-----5-----6~-|
A|-0-0-0-0-0-0-0-0-0-0-0-0-0-0-0-1-----3-----5-----6~-|
D|-0-0-0-0-0-0-0-0-0-0-0-0-0-0-0-1-----3-----5-----6~-|

Riff 2 (fill)
E|---5--5--5--------5--5--5------|
B|---6--6--6--------5--5--5------|
G|---7--7--7--------7--7--7------|
D|-0----------7-5-7----------7-6-|
A|-------------------------------|
D|-------------------------------|

Play Riff 1 x2   "The sky is falling haven't you heard..."

Ending   "Panic and run!"
E|--------------------------------------------------------|
B|--------------------------------------------------------|
G|-----------------------------------------------------7\-|
D|-5---10---7--7-7-7-7-7-7-0-5---10---7--7-7-7-7-7-7-0-7\-|
A|-5---10---7--7-7-7-7-7-7-0-5---10---7--7-7-7-7-7-7-0-5\-|
D|-5-0-10-0-7--7-7-7-7-7-7-0-5-0-10-0-7--7-7-7-7-7-7-0----|

Enjoy!
     





Comments


Popular P.O.D. tabs & chords
Ghetto Bass Tabs
Greetings 3 Bass Tabs
Booyaka 619 Rey Mysterio Tabs
Checkin' Levels Tabs
Full Colour Tabs
Mistakes And Glories 1 Tabs
Set Your Eyes To Zion 1 Tabs
Southtown 1 Tabs
Space Tabs
Youth Of The Nation 9 Tabs


Song lyrics



↑ Back to top | Tablatures and chords are parodies/interpretations of the original songs. You may use it for private study, scholarship, research or language learning purposes only
© 2014 AZChords.com Contact us | Privacy policy | DMCA | Add/correct tabs | Request tabs | Top 50 tabs