» » »

P.O.D., It Cant Rain Everyday Accoustic Tabs (ver.1)

Artists:  A B C D E F G H I J K L M N O P Q R S T U V W X Y Z # 

It Cant Rain Everyday Accoustic Tabs (ver.1)

P.O.D. Tabs
 Rating:
4/5 (4 votes)
It Cant Rain Everyday Accoustic lessons Tabs too difficult? Try these video lessons and learn fast
                   IT CAN'T RAIN EVERYDAY
                              As recorded by P.O.D.


Gtr I (D G C F A D) - 'Untitled'

 Intro
  Q=100
 4/4
  Gtr I
  E E E E E E E S  S   Q  E E E  S S E E
|--------------------|-------------------|
|--------------------|-------------------|
|-----9-----9---9s10-|----7-----10p9p7---|
|-7-7---7-7---7------|-0----0-0--------9-|
|--------------------|-------------------|
|--------------------|-------------------|


   E E E  E E E  E E   E E E E E E E E
|--------------------|------------------|
|--------------------|-------------5----|
|------7------7------|-----5-----7---7--|
|----9------9------9-|---7---7-6--------|
|-10-----10-----10---|-8----------------|
|--------------------|------------------|


   Verse
    E E E E E E E S  S   Q  E E E  S S E E
||---------------------|-------------------|
||o--------------------|-------------------|
||------9-----9---9s10-|----7-----10p9p7---|
||--7-7---7-7---7------|-0----0-0--------9-|
||o--------------------|-------------------|
||---------------------|-------------------|


   E E E  E E E  E E   E E E E E E E E
|--------------------|-------------------||
|--------------------|-------------5----o||
|------7------7------|-----5-----7---7---||
|----9------9------9-|---7---7-6---------||
|-10-----10-----10---|-8----------------o||
|--------------------|-------------------||


  E E E E E E E E   E E E S S E E E E   E E E E E E E E    E E E  S S E E  E E
|-------1---------|-------5p3---------|-------5---------|--------10p8----------|
|-----1---1-------|-----3-----3-------|-----5---5-------|------8------8--------|
|---2-------2---2-|---4---------4---4-|---5-------5---5-|----9----------9----9-|
|-3-----------3---|-5-------------5---|-7-----------7---|-10--------------10---|
|-----------------|-------------------|-----------------|----------------------|
|-----------------|-------------------|-----------------|----------------------|


  E E E E E E E E   E E E S S E E E E   E E E E E E E E    E E E  S S E E  E E
|-------1---------|-------5p3---------|-------5---------|--------10p8----------|
|-----1---1-------|-----3-----3-------|-----5---5-------|------8------8--------|
|---2-------2---2-|---4---------4---4-|---5-------5---5-|----9----------9----9-|
|-3-----------3---|-5-------------5---|-7-----------7---|-10--------------10---|
|-----------------|-------------------|-----------------|----------------------|
|-----------------|-------------------|-----------------|----------------------|


 4/4
  W          +Q.   S S E E E E   a Q.   E Q  +Q
|-1--------|-(1)---------------|------------------|
|-1--------|-(1)---------------|--------8---------|
|-2--------|-(2)---------4-5-7-|-7s9------7--(7)--|
|-3--------|-(3)---7-7-7-------|------------------|
|----------|-------------------|------------------|
|-1--------|-(1)---------------|------------------|


  +Q.   S S E  a  E E E   a Q.   E H       S  S  S  S Q  H
|-----------------------|---------------|---------------------|
|-----------------------|---------------|-10-10-10-10---------|
|-(7)---7-7-7-(7)S5-4---|--------7------|--9--9--9--9---------|
|---------------------5-|-5s9------7----|--7--7--7--7---------|
|-----------------------|---------------|---------------------|
|-----------------------|---------------|---------------------|


    E E E E E E E S  S   Q  E E E  S S E E
||---------------------|-------------------|
||o--------------------|-------------------|
||------9-----9---9s10-|----7-----10p9p7---|
||--7-7---7-7---7------|-0----0-0--------9-|
||o--------------------|-------------------|
||---------------------|-------------------|


   E E E  E E E  E E   E E E E E E E E
|--------------------|-------------------||
|--------------------|-------------5----o||
|------7------7------|-----5-----7---7---||
|----9------9------9-|---7---7-6---------||
|-10-----10-----10---|-8----------------o||
|--------------------|-------------------||


 Pre-Chorus
  E E E E E E E E   E E E S S E E E E   E E E E E E E E    E E E  S S E E  E E
|-------1---------|-------5p3---------|-------5---------|--------10p8----------|
|-----1---1-------|-----3-----3-------|-----5---5-------|------8------8--------|
|---2-------2---2-|---4---------4---4-|---5-------5---5-|----9----------9----9-|
|-3-----------3---|-5-------------5---|-7-----------7---|-10--------------10---|
|-----------------|-------------------|-----------------|----------------------|
|-----------------|-------------------|-----------------|----------------------|


  E E E E E E E E   E E E S S E E E E   E E E E E E E E    E E E  S S E E  E E
|-------1---------|-------5p3---------|-------5---------|--------10p8----------|
|-----1---1-------|-----3-----3-------|-----5---5-------|------8------8--------|
|---2-------2---2-|---4---------4---4-|---5-------5---5-|----9----------9----9-|
|-3-----------3---|-5-------------5---|-7-----------7---|-10--------------10---|
|-----------------|-------------------|-----------------|----------------------|
|-----------------|-------------------|-----------------|----------------------|


 Chorus
  W          +Q.   S S E E E E   a Q.   E Q  +Q
|-1--------|-(1)---------------|------------------|
|-1--------|-(1)---------------|--------8---------|
|-2--------|-(2)---------4-5-7-|-7s9------7--(7)--|
|-3--------|-(3)---7-7-7-------|------------------|
|----------|-------------------|------------------|
|-1--------|-(1)---------------|------------------|


  +Q.   S S E  a  E E E   a Q.   E H
|-----------------------|---------------|
|-----------------------|---------------|
|-(7)---7-7-7-(7)S5-4---|--------7------|
|---------------------5-|-5s9------7----|
|-----------------------|---------------|
|-----------------------|---------------|


  +Q.   S S E E E E   a Q.   E Q  +Q     +Q.   S S E  a  E E E   a Q.   E H
|-------------------|------------------|-----------------------|---------------|
|-------------------|--------8---------|-----------------------|---------------|
|-------------4-5-7-|-7s9------7--(7)--|-(7)---7-7-7-(7)S5-4---|--------7------|
|-(7)---7-7-7-------|------------------|---------------------5-|-5s9------7----|
|-------------------|------------------|-----------------------|---------------|
|-------------------|------------------|-----------------------|---------------|


                       Interlude
  +Q.   S S E E  E  E   Q   E E E  E  E  E
|---------------------|--------------------|
|---------------------|--------------------|
|---------------------|--------------------|
|-(7)---7-7-7-9-10S12-|----10-----10S12S14-|
|---------------------|-8-----8-8----------|
|---------------------|--------------------|


  Q  E E E E  E  E   Q  E E E E E E
|------------------|-----------------|
|------------------|-----------------|
|----9-----9-10-12-|----7-----7-7----|
|-7----7-7---------|-5----5-5-----5--|
|------------------|-----------------|
|------------------|-----------------|


  Q  E E E E E  E   Q   E E E  E  E  E   Q  E E E E  E  E   Q  E E E E E E
|-----------------|--------------------|------------------|----------------|
|-----------------|--------------------|------------------|----------------|
|----7-----7-9-10-|--------------------|----9-----9-10-12-|----7-----7-7---|
|-5----5-5--------|----10-----10-12-14-|-7----7-7---------|-5----5-5-----5-|
|-----------------|-8-----8-8----------|------------------|----------------|
|-----------------|--------------------|------------------|----------------|


                   Verse
  Q  E E E E E  E   E E E E E E E S  S   Q  E E E  S S E E
|-----------------|--------------------|-------------------|
|-----------------|--------------------|-------------------|
|----7-----7-9-10-|-----9-----9---9s10-|----7-----10p9p7---|
|-5----5-5--------|-7-7---7-7---7------|-0----0-0--------9-|
|-----------------|--------------------|-------------------|
|-----------------|--------------------|-------------------|


   E E E  E E E  E E   E E E E E E E E
|--------------------|------------------|
|--------------------|-------------5----|
|------7------7------|-----5-----7---7--|
|----9------9------9-|---7---7-6--------|
|-10-----10-----10---|-8----------------|
|--------------------|------------------|


  E E E E E E E S  S   Q  E E E  S S E E
|--------------------|-------------------|
|--------------------|-------------------|
|-----9-----9---9s10-|----7-----10p9p7---|
|-7-7---7-7---7------|-0----0-0--------9-|
|--------------------|-------------------|
|--------------------|-------------------|


   E E E  E E E  E E   E E E E E E E E
|--------------------|-----------------|
|--------------------|-------------5---|
|------7------7------|-----5-----7---7-|
|----9------9------9-|---7---7-6-------|
|-10-----10-----10---|-8---------------|
|--------------------|-----------------|


 Pre-Chorus
  E E E E E E E E   E E E S S E E E E   E E E E E E E E    E E E  S S E E  E E
|-------1---------|-------5p3---------|-------5---------|--------10p8----------|
|-----1---1-------|-----3-----3-------|-----5---5-------|------8------8--------|
|---2-------2---2-|---4---------4---4-|---5-------5---5-|----9----------9----9-|
|-3-----------3---|-5-------------5---|-7-----------7---|-10--------------10---|
|-----------------|-------------------|-----------------|----------------------|
|-----------------|-------------------|-----------------|----------------------|


  E E E E E E E E   E E E S S E E E E   E E E E E E E E    E E E  S S E E  E E
|-------1---------|-------5p3---------|-------5---------|--------10p8----------|
|-----1---1-------|-----3-----3-------|-----5---5-------|------8------8--------|
|---2-------2---2-|---4---------4---4-|---5-------5---5-|----9----------9----9-|
|-3-----------3---|-5-------------5---|-7-----------7---|-10--------------10---|
|-----------------|-------------------|-----------------|----------------------|
|-----------------|-------------------|-----------------|----------------------|


 Chorus
  W          +Q.   S S E E E E   a Q.   E Q  +Q
|-1--------|-(1)---------------|------------------|
|-1--------|-(1)---------------|--------8---------|
|-2--------|-(2)---------4-5-7-|-7s9------7--(7)--|
|-3--------|-(3)---7-7-7-------|------------------|
|----------|-------------------|------------------|
|-1--------|-(1)---------------|------------------|


  +Q.   S S E  a  E E E   a Q.   E H
|-----------------------|---------------|
|-----------------------|---------------|
|-(7)---7-7-7-(7)S5-4---|--------7------|
|---------------------5-|-5s9------7----|
|-----------------------|---------------|
|-----------------------|---------------|


  +Q.   S S E E E E   a Q.   E Q  +Q     +Q.   S S E  a  E E E   a Q.   E H
|-------------------|------------------|-----------------------|---------------|
|-------------------|--------8---------|-----------------------|---------------|
|-------------4-5-7-|-7s9------7--(7)--|-(7)---7-7-7-(7)S5-4---|--------7------|
|-(7)---7-7-7-------|------------------|---------------------5-|-5s9------7----|
|-------------------|------------------|-----------------------|---------------|
|-------------------|------------------|-----------------------|---------------|


  +Q.   S S E E E E   a Q.   E Q  +Q     +Q.   S S E  a  E E E   a Q.   E H
|-------------------|------------------|-----------------------|---------------|
|-------------------|--------8---------|-----------------------|---------------|
|-------------4-5-7-|-7s9------7--(7)--|-(7)---7-7-7-(7)S5-4---|--------7------|
|-(7)---7-7-7-------|------------------|---------------------5-|-5s9------7----|
|-------------------|------------------|-----------------------|---------------|
|-------------------|------------------|-----------------------|---------------|


  +Q.   S S E E E E   a Q.   E Q  +Q
|-------------------|------------------|
|-------------------|--------8---------|
|-------------4-5-7-|-7s9------7--(7)--|
|-(7)---7-7-7-------|------------------|
|-------------------|------------------|
|-------------------|------------------|


  +Q.   S S E  a  E E E   a Q.   E H       S  S  S  S Q  H
|-----------------------|---------------|---------------------*|
|-----------------------|---------------|-10-10-10-10---------*|
|-(7)---7-7-7-(7)S5-4---|--------7------|--9--9--9--9---------*|
|---------------------5-|-5s9------7----|--7--7--7--7---------*|
|-----------------------|---------------|---------------------*|
|-----------------------|---------------|---------------------*|


Duration Legend
---------------
W - whole; H - half; Q - quarter; E - 8th; S - 16th; T - 32nd; X - 64th; a - acciaccatura
+ - note tied to previous; . - note dotted; .. - note double dotted
Uncapitalized letters represent notes that are staccato (1/2 duration)
Irregular groupings are notated above the duration line
Duration letters will always appear directly above the note/fret number it represents the
duration for.  Duration letters with no fret number below them represent rests.  Multi-
bar rests are notated in the form Wxn, where n is the number of bars to rest for.  Low
melody durations appear below the staff
            
Submit corrections

comments powered by Disqus
↑ Back to top | P.O.D. Tabs for It Cant Rain Everyday Accoustic. Lyrics for acoustic guitar and electric guitar. Tablatures and chords are parodies/interpretations of the original songs. You may use it for private study, scholarship, research or language learning purposes only