» » »

P.O.D., Hollywood Tabs (ver.2)

Artists:  A B C D E F G H I J K L M N O P Q R S T U V W X Y Z # 

Hollywood Tabs (ver.2)

P.O.D. Tabs
 Rating:
4/5 (4 votes)
Hollywood lessons Tabs too difficult? Try these video lessons and learn fast
                
Drop D

Intro:
-------------------
-------------------
-------------------
---0-----0-----0---
---0-----0-----0---
---0-----0-----0---
Verse:
----------------------------
----------------------------
-------7------------7h8-5---
---0------7-----0-----------
---0------------0-----------
---0------------0-----------

Chorus:
-----------------------------
-----------------------------
-------7-7-7/8-8---------5---
---0-----------------0-------
---0---5-5-5/6-6-----0---3---
---0-----------------0-------

Bridge:
--------------------------|---------------------
--------------------------|---------------------
---------------------7----|---------5-4-2-4-2---
---0-0-0-3-2-0-1-0-0-7----|---0-0---------------
---0-0-0-3-2-0-1-0-0-5----|---0-0---3-2-0-2-0---
---0-0-0-3-2-0-1-0-0------|---0-0---------------

Verse (variation):
-----------------------------
-----------------------------
-----------7-----------------
---0-------------0-----------
---0---5h6-------0---5h6-3---
---0-------------0-----------

End:
-----------------------
-----------7-8-7-------
-------7-8-------8-7---
---0-------------------
---0-------------------
---0-------------------
            
Submit corrections

comments powered by Disqus
↑ Back to top | P.O.D. Tabs for Hollywood. Lyrics for acoustic guitar and electric guitar. Tablatures and chords are parodies/interpretations of the original songs. You may use it for private study, scholarship, research or language learning purposes only