» » »

P.O.D., Here We Go Tabs (ver.1)

Artists:  A B C D E F G H I J K L M N O P Q R S T U V W X Y Z # 

Here We Go Tabs (ver.1)

P.O.D. Tabs
 Rating:
4/5 (4 votes)
Here We Go lessons Tabs too difficult? Try these video lessons and learn fast
                POD-Here We Go
Off of Greatest Hits: Atlantic Years


Intro/Verse

D|------------------------------------|
A|------------------------------------|
F|------------------------------------|
C|--7-7-7--3-3-0--7-7--3--0-0-0-0-----|
G|--7-7-7--3-3-0—-7-7--3--0-0-0-0-----|
C|--7-7-7--3-3-0—-7-7--3--0-0-0-0-----|

D|----------------------------------|
A|----------------------------------|
F|----------------------------------|
C|-5-5—5/3—-5h7--5—5/3—5h7--5-------|
G|-5-5-5/3—-5h7--5—5/3—5h7--5-------|
C|-5-5—5/3—-5h7--5—5/3—5h7--5-------|

PreChorus

D|---------------------------|
A|---------------------------|
F|---------------------------|
C|---------------------------| x 8
G|----12-12-12---------------|
C|---------------10----------|

Chorus

D|-----------------------------17---------------------------------|
A|----------------15--15--15-------15-15-------15--15-------------|
F|-----16--16--16-------------------------16----------------------|
C|----------------------------------------------------------------|
G|----------------------------------------------------------------|
C|----------------------------------------------------------------|

D|----------------------------------------------------------------|
A|---------------15-15-15--17---------------15-15-15--------------|
F|----16-16-16--------------------16-16-16------------------------|
C|----------------------------------------------------------------|
G|----------------------------------------------------------------|
C|----------------------------------------------------------------|

Verse:

D|------------------------------------|
A|------------------------------------|
F|------------------------------------|
C|--7-7-7--3-3-0--7-7--3--0-0-0-0-----|
G|--7-7-7--3-3-0—-7-7--3--0-0-0-0-----|
C|--7-7-7--3-3-0—-7-7--3--0-0-0-0-----|

D|----------------------------------|
A|----------------------------------|
F|----------------------------------|
C|-5-5—5/3—-5h7--5—5/3—5h7--5-------|
G|-5-5-5/3—-5h7--5—5/3—5h7--5-------|
C|-5-5—5/3—-5h7--5—5/3—5h7--5-------|



PreChorus

D|---------------------------|
A|---------------------------|
F|---------------------------|
C|---------------------------| x 8
G|----12-12-12---------------|
C|---------------10----------|

Chorus (4 times)

D|-----------------------------17---------------------------------|
A|----------------15--15--15-------15-15-------15--15-------------|
F|-----16--16--16-------------------------16----------------------|
C|----------------------------------------------------------------|
G|----------------------------------------------------------------|
C|----------------------------------------------------------------|

D|----------------------------------------------------------------|
A|---------------15-15-15--17---------------15-15-15--------------|
F|----16-16-16--------------------16-16-16------------------------|
C|----------------------------------------------------------------|
G|----------------------------------------------------------------|
C|----------------------------------------------------------------|

Bridge (2 times)


Guitar 1

D|-----------------------------------------------------------|
A|-----------------------------------------------------------|
F|-------------------------------------------12/14-----------|
C|--------8/10-----------------------------------------------|
G|-----------------------------------------------------------|
C|-----------------------------------------------------------|


Guitar 2 (Clean)
D|-----------------------------------------------------------|
A|-----------------------------------------------------------|
F|-----------------------------------------------------------|
C|--9~--------------------5~---------------------------------|
G|--9~--------------------5~---------------------------------|
C|--9~--------------------5~---------------------------------|

1st time:
D|-----------------------------------------------------------|
A|-----------------------------------------------------------|
F|-------------------------5-5-5-5---------------------------|
C|--0--3-0-5--0-3-0-5-0----x-x-x-x---------------------------|
G|--0--3-0-5--0-3-0-5-0----3-3-3-3---------------------------|
C|--0--3-0-5--0-3-0-5-0--------------------------------------|






2nd Time: 

D|------------------------------------|
A|------------------------------------|
F|------------------------------------|
C|--0--3-0-5--0-3-0-5-0-3h5p3p0-------|
G|--0--3-0-5--0-3-0-5-0-3h5p3p0-------|
C|--0--3-0-5--0-3-0-5-0-3h5p3p0-------|

PreChorus

D|---------------------------|
A|---------------------------|
F|---------------------------|
C|---------------------------| x 8
G|----12-12-12---------------|
C|---------------10----------|

Chorus (8 times)

D|-----------------------------17---------------------------------|
A|----------------15--15--15-------15-15-------15--15-------------|
F|-----16--16--16-------------------------16----------------------|
C|----------------------------------------------------------------|
G|----------------------------------------------------------------|
C|----------------------------------------------------------------|

D|----------------------------------------------------------------|
A|---------------15-15-15--17---------------15-15-15--------------|
F|----16-16-16--------------------16-16-16------------------------|
C|----------------------------------------------------------------|
G|----------------------------------------------------------------|
C|----------------------------------------------------------------|

Then end with:

D|-----------------------------------------------------------|
A|-----------------------------------------------------------|
F|-------------------------5-5-5-5---------------------------|
C|--0--3-0-5--0-3-0-5-0----x-x-x-x---------------------------|
G|--0--3-0-5--0-3-0-5-0----3-3-3-3---------------------------|
C|--0--3-0-5--0-3-0-5-0--------------------------------------|


D|----------------------------------------|
A|----------------------------------------|
F|----------------------------------------|
C|--0--3-0-5--0-3-0-5-0--0-0-0-0----------|
G|--0--3-0-5--0-3-0-5-0--0-0-0-0----------|
C|--0--3-0-5--0-3-0-5-0--0-0-0-0----------|
            
Submit corrections

comments powered by Disqus
↑ Back to top | P.O.D. Tabs for Here We Go. Lyrics for acoustic guitar and electric guitar. Tablatures and chords are parodies/interpretations of the original songs. You may use it for private study, scholarship, research or language learning purposes only