» » »

P.O.D., Here Comes The Boom Tabs (ver.1)

Artists:  A B C D E F G H I J K L M N O P Q R S T U V W X Y Z # 

Here Comes The Boom Tabs (ver.1)

P.O.D. Tabs
 Rating:
4/5 (4 votes)
Here Comes The Boom lessons Tabs too difficult? Try these video lessons and learn fast
                -------------------------------------------------------------------------------
                             HERE COMES THE BOOM - POD

-------------------------------------------------------------------------------

Tuning: DADGBE
 _______
[  KEY  ]

| /  slide up
| \  slide down
| h  hammer-on
| p  pull-off
| ~  vibrato
| +  harmonic
| x  Mute note
| () optional note


This is my first ever tab, so their may be mistakes, but I'm pretty sure it's 100% 
let me know what you think!


Intro: play it loud 'n' proud, it's a chord solo... until the drums come in...
(Phh... drummers...)

play x4

e|---------------------------------------------------------------------------|
B|---------------------------------------------------------------------------|
G|---------------------------------------------------------------------------|
D|-2-2-2-2-2-0----0-2-2-2-2-2-0----0-5-5-5-5-5-5-5-5-7-7-7-7-7-0----0--------|
A|-2-2-2-2-2-0----0-2-2-2-2-2-0----0-5-5-5-5-5-5-5-5-7-7-7-7-7-0----0--------|
D|-2-2-2-2-2-0----0-2-2-2-2-2-0----0-5-5-5-5-5-5-5-5-7-7-7-7-7-0----0--------|

Verse: Palm Muted

play x3

e|---------------------------------------------------------------------------|
B|---------------------------------------------------------------------------|
G|---------------------------------------------------------------------------|
D|-2-2-2-2-2-0-0-0-2-2-2-2-2-0-0-0-5-5-5-5-5-5-5-5-7-7-7-7-7-0-0-0-----------|
A|-2-2-2-2-2-0-0-0-2-2-2-2-2-0-0-0-5-5-5-5-5-5-5-5-7-7-7-7-7-0-0-0-----------|
D|-2-2-2-2-2-0-0-0-2-2-2-2-2-0-0-0-5-5-5-5-5-5-5-5-7-7-7-7-7-0-0-0-----------|
   x x x x x x x x x x x x x x x x x x x x x x x x x x x x x x x x

End of Verse (4th time through): x's are palm mutes

e|---------------------------------------------------------------------------|
B|---------------------------------------------------------------------------|
G|---------------------------------------------------------------------------|
D|-2-2-2-2-2-0-0-0-2-2-2-2-2-0-0-0-5-5-5-5-5-5-5-5-7-7-7-7-7-0---0-----------|
A|-2-2-2-2-2-0-0-0-2-2-2-2-2-0-0-0-5-5-5-5-5-5-5-5-7-7-7-7-7-0---0-----------|
D|-2-2-2-2-2-0-0-0-2-2-2-2-2-0-0-0-5-5-5-5-5-5-5-5-7-7-7-7-7-0---0-----------|
   x x x x x x x x x x x x x x x x

Intro to Chorus:

play x2

e|---------------------------------------------------------------------------|
B|---------------------------------------------------------------------------|
G|---------------------------------------------------------------------------|
D|-2-2-2-2-2-0-0-0-2-2-2-2-2-0-0-0-5-5-5-5-5-5-5-5-7-7-7-7-7-0---0-----------|
A|-2-2-2-2-2-0-0-0-2-2-2-2-2-0-0-0-5-5-5-5-5-5-5-5-7-7-7-7-7-0---0-----------|
D|-2-2-2-2-2-0-0-0-2-2-2-2-2-0-0-0-5-5-5-5-5-5-5-5-7-7-7-7-7-0---0-----------|

Chorus

play x2

e|---------------------------------------------------------------------------|
B|---------------------------------------------------------------------------|
G|---------------------------------------------------------------------------|
D|-2--2--2-5--5-2--2--2-0--0--7-7-7-7-7-0--0---------------------------------|
A|-2--2--2-5--5-2--2--2-0--0--7-7-7-7-7-0--0---------------------------------|
D|-2--2--2-5--5-2--2--2-0--0--7-7-7-7-7-0--0---------------------------------|

Verse: Palm Muted

play x3

e|---------------------------------------------------------------------------|
B|---------------------------------------------------------------------------|
G|---------------------------------------------------------------------------|
D|-2-2-2-2-2-0-0-0-2-2-2-2-2-0-0-0-5-5-5-5-5-5-5-5-7-7-7-7-7-0-0-0-----------|
A|-2-2-2-2-2-0-0-0-2-2-2-2-2-0-0-0-5-5-5-5-5-5-5-5-7-7-7-7-7-0-0-0-----------|
D|-2-2-2-2-2-0-0-0-2-2-2-2-2-0-0-0-5-5-5-5-5-5-5-5-7-7-7-7-7-0-0-0-----------|
   x x x x x x x x x x x x x x x x x x x x x x x x x x x x x x x x

(4th time through): x's are palm mutes

e|---------------------------------------------------------------------------|
B|---------------------------------------------------------------------------|
G|---------------------------------------------------------------------------|
D|-2-2-2-2-2-0-0-0-2-2-2-2-2-0-0-0-5-5-5-5-5-5-5-5-7-7-7-7-7-0---0-----------|
A|-2-2-2-2-2-0-0-0-2-2-2-2-2-0-0-0-5-5-5-5-5-5-5-5-7-7-7-7-7-0---0-----------|
D|-2-2-2-2-2-0-0-0-2-2-2-2-2-0-0-0-5-5-5-5-5-5-5-5-7-7-7-7-7-0---0-----------|
   x x x x x x x x x x x x x x x x

Intro to Chorus:

play x2

e|---------------------------------------------------------------------------|
B|---------------------------------------------------------------------------|
G|---------------------------------------------------------------------------|
D|-2-2-2-2-2-0-0-0-2-2-2-2-2-0-0-0-5-5-5-5-5-5-5-5-7-7-7-7-7-0---0-----------|
A|-2-2-2-2-2-0-0-0-2-2-2-2-2-0-0-0-5-5-5-5-5-5-5-5-7-7-7-7-7-0---0-----------|
D|-2-2-2-2-2-0-0-0-2-2-2-2-2-0-0-0-5-5-5-5-5-5-5-5-7-7-7-7-7-0---0-----------|

Chorus

play x4

e|---------------------------------------------------------------------------|
B|---------------------------------------------------------------------------|
G|---------------------------------------------------------------------------|
D|-2--2--2-5--5-2--2--2-0--0--7-7-7-7-7-0--0-2-------------------------------|
A|-2--2--2-5--5-2--2--2-0--0--7-7-7-7-7-0--0-2-------------------------------|
D|-2--2--2-5--5-2--2--2-0--0--7-7-7-7-7-0--0-2-------------------------------|
                                            (let it ring)

Bridge

play x2

e|---------------------------------------------------------------------------|
B|---------------------------------------------------------------------------|
G|---------------------------------------------------------------------------|
D|-------2--------------2------(4)----------2--------------2-----2h4p2-------|
A|----2--------------2-------------------2--------------2--------------------|
D|-2--------------2-------------------2--------------2-----------------------|
       (let Ring)    (let ring)           (let ring)     (let ring)

play x2

e|---------------------------------------------------------------------------|
B|---------------------------------------------------------------------------|
G|---------------------------------------------------------------------------|
D|-2-----------0-----------2-----------0-----------2h4p2---------------------|
A|-2-----------0-----------2-----------0-------------------------------------|
D|-2-----------0-----------2-----------0-------------------------------------|

play x2

e|---------------------------------------------------------------------------|
B|---------------------------------------------------------------------------|
G|---------------------------------------------------------------------------|
D|-2--2-------2--2-------7-7-7-7-7-0--0-7-7-7-7-7-0--0-----------------------|
A|-2--2-------2--2-------7-7-7-7-7-0--0-7-7-7-7-7-0--0-----------------------|
D|-2--2-------2--2-------7-7-7-7-7-0--0-7-7-7-7-7-0--0-----------------------|

Outro Chorus

play x2

e|---------------------------------------------------------------------------|
B|---------------------------------------------------------------------------|
G|---------------------------------------------------------------------------|
D|-2--2--2-5--5-2--2--2-0--0--7-7-7-7-7-0------------------------------------|
A|-2--2--2-5--5-2--2--2-0--0--7-7-7-7-7-0------------------------------------|
D|-2--2--2-5--5-2--2--2-0--0--7-7-7-7-7-0------------------------------------|
                                        (short note at end)


| /  slide up
| \  slide down
| h  hammer-on
| p  pull-off
| ~  vibrato
| +  harmonic
| x  Mute note
| () optional note
===============================================================================
            
Submit corrections

comments powered by Disqus
↑ Back to top | P.O.D. Tabs for Here Comes The Boom. Lyrics for acoustic guitar and electric guitar. Tablatures and chords are parodies/interpretations of the original songs. You may use it for private study, scholarship, research or language learning purposes only