» » »

P.O.D., Going In Blind Tabs (ver.2)

Artists:  A B C D E F G H I J K L M N O P Q R S T U V W X Y Z # 

Going In Blind Tabs (ver.2)

P.O.D. Tabs
 Rating:
4/5 (4 votes)
Going In Blind lessons Tabs too difficult? Try these video lessons and learn fast
1
                ----------------------------------------------------------------------------
                             Going In Blind - P.O.D.
----------------------------------------------------------------------------

Tuning:Standard 
NOTE:There is no intro to this song on the guitar it's all done on bass
I know this isn't dead correct but I tried you can watch the video for the song and pick up a little  

0:14     0:16   0:20     0:28                   0:37       0:43      0:56
e|----------------------------------------------------3~---------3~------3~|
B|-------------------------14-----------------------4p5~-----4p5~------4p5~|
G|-------------------------------------------------------------------------|
D|17-------12---------16------12-------------------------------------------|
A|18--------------18-------------------------------------------------------|
E|18-------15-------17--------15-------------------------------------------|
 
0:58    1:22    1:29  1:37     1:42  1:51    1:57  1:58      2:16  2:38
e|----3~------3~----3~-------3~----3~-----3~--------15+--------------------|
B|4p6~----4p6~----4p6~---4p6~---4p6~--4p6~----------15+--------------------|
G|--------------------------------------------------15+13p14------20-------|
D|--------------------------------------------13----15+-----14----21-------|
A|------------------------------------------15----15+-------16----21-------|
E|------------------------------------------14----15+-------15----22-------|
  
2:57     3:02   3:09     3:10   3:18   3:19
e|-----------------13---16-----8------8~-----------------------------------|
B|---------------12-----16-----7------8~-----------------------------------|
G|-------------11--------------6------9~-----------------------------------|
D|----16---12--------------------------------------------------------------|
A|18-------13--------------17----------------------------------------------|
E|--17-----14--------------------------------------------------------------|
| /  slide up
| \  slide down
| h  hammer-on
| p  pull-off
| ~  vibrato
| +  harmonic
| x  Mute note
===============================================================================
            
Submit corrections

comments powered by Disqus
↑ Back to top | P.O.D. Tabs for Going In Blind. Lyrics for acoustic guitar and electric guitar. 1 Tablatures and chords are parodies/interpretations of the original songs. You may use it for private study, scholarship, research or language learning purposes only