» » »

P.O.D., Going In Blind Tabs (ver.1)

Artists:  A B C D E F G H I J K L M N O P Q R S T U V W X Y Z # 

Going In Blind Tabs (ver.1)

P.O.D. Tabs
 Rating:
4/5 (4 votes)
Going In Blind lessons Tabs too difficult? Try these video lessons and learn fast
                Duration: 4:28

=====|Guitar Tabs|===========================================================
*This is not 100% correct tabbing for the song, but I'm going by ear and maybe others 
tab a more correct version from this.

TUNING = DROP C
C-G-C-G-C-E

Intro
C|-----------|
G|--0----3---| (x2) *I'd recommend putting it in acoustic, and Reverb if you
C|--0----3---|       got it.
G|--8----3---|
C|-----------|
E|-----------|

This Is The Chorus
C|-------------------------------------------------------------|
G|-------------------------------------------------------------| (x2)
C|-------------------------------------------------------------| Distorted
G|--12--12---12h13p12----12h10---10--888-8---7h8-7h8-7h8-------|
C|-------------------------------------------------------------|
E|-------------------------------------------------------------|

Throughout The Verses
C|------------------------------------------------------------|
G|------------------------------------------------------------|
C|------------------------------------------------------------|
G|--------------20--19----------------------------------------|
C|----------20------------------------------------------------|
E|------------------------------------------------------------|


Right Before The Piano & During The Piano
C|------------------------------------------------------------|
G|------------------------------------------------------------|
C|------------------------------------------------------------|
G|--5--7--8--10--------5--7--8--7--8--------5--7--8--15--14---|
C|------------------------------------------------------------|
E|------------------------------------------------------------|

The Piano Part Towards The End of The Song (*Sounds Better If you Tap These 3 Frets*)
C|------------------------------------------------------------|
G|------------------------------------------------------------|
C|-----19------19-------------17------------------------------|
G|---------17------17----20-----------------------------------|
C|------------------------------------------------------------|
E|------------------------------------------------------------|
Do This Part Repeatedly about 12-13 Times.

Lyrics: One day... Some day..

This life *not* like you wanted it.
His eyes I can see again, I need you here.
In your mind nobody's listening.
It's alright not to feel again,
Just breath again...

Time after time I walk the fine line,
But something keeps bringing me back.
Time after time I'm going in blind,
I don't know which way I need to go...

Feels like your world is caving in
And I cry, failing to understand,
I wish I can...
It's alright if you're missing him,
In his eyes you can live again,
Free within!

Time after time I walk the fine line,
But something keeps bringing me back.
Time after time I'm going in blind,
I don't know which way I need to go!

Time after time I walk the fine line,
But something keeps bringing me back.
Time after time I can't see the signs,
I don't know which way I need to go!
Do all these roads lead me back to you...
I don't know which way I need to go.
one day? Some day!

Time after time I walk the fine line,
But something keeps bringing me back.
Time after time I'm going in blind,
I don't know WHICH way I need to go!

Time after time I walk the fine line,
But something keeps bringing me back.
Time after time I can't see the signs
do all these roads leading me back to you,
One day....
            
Submit corrections

comments powered by Disqus
↑ Back to top | P.O.D. Tabs for Going In Blind. Lyrics for acoustic guitar and electric guitar. Tablatures and chords are parodies/interpretations of the original songs. You may use it for private study, scholarship, research or language learning purposes only