» » »

P.O.D., God Forbid Tabs (ver.1)

Artists:  A B C D E F G H I J K L M N O P Q R S T U V W X Y Z # 

God Forbid Tabs (ver.1)

P.O.D. Tabs
 Rating:
4/5 (4 votes)
God Forbid lessons Tabs too difficult? Try these video lessons and learn fast
1
                Okay this is the best i could figure out, this song really isn't that difficult. Pod is 
great band and their songs aren't that hard to play.

This part comes after long quiet intro (the single strums are palm muted the entire song)
E  ----------------------------------------------------|
B  ----------------------------------------------------|
G  -------8-8-8--------8-8-8--------8-8-8--------8-8-8-|
D  -------8-8-8--------8-8-8--------8-8-8--------8-8-8-|
A  -------6-6-6--------6-6-6--------6-6-6--------6-6-6-|
D  000000-6-6-6-000000-6-6-6-000000-6-6-6-000000-6-6-6-|

E ----------------------------------------------------|
B ----------------------------------------------------|
G ----------------------------------------------------|
D ----------------------------------------------------|
A ----------------------------------------------------|
D 000000-5-5-5-000000-5-5-5-000000-5-5-5-000000-3-3-3-|


E  ----------------------------------------------------|
B  ----------------------------------------------------|
G  -------8-8-8--------8-8-8--------8-8-8--------8-8-8-|
D  -------8-8-8--------8-8-8--------8-8-8--------8-8-8-|
A  -------6-6-6--------6-6-6--------6-6-6--------6-6-6-|
D  000000-6-6-6-000000-6-6-6-000000-6-6-6-000000-6-6-6-|

E ----------------------------------------------------|
B ----------------------------------------------------|
G ----------------------------------------------------|
D ----------------------------------------------------|
A ----------------------------------------------------|
D 000000-5-5-5-000000-5-5-5-000000-5-5-5-000000-3-3-3-|

This part is actually quite simple all you have to do is hold the lower of the two 
and tap the higher on fast three times
E ---------------------------------------------------------------------|
B ---------------------------------------------------------------------|
G ---------------------------------------------------------------------|
D ---------------------------------------------------------------------|
A ------7,8,7,8,7,8------0,1,0,1,0,1------3,5,3,5,3,5------1,3,1,3,1,3-|
D 000000--------000000---------000000---------000000-------------------|


E ---------------------------------------------------------------------|
B ---------------------------------------------------------------------|
G ---------------------------------------------------------------------|
D ---------------------------------------------------------------------|
A ------7,8,7,8,7,8------0,1,0,1,0,1------3,5,3,5,3,5------1,3,1,3,1,3-|
D 000000--------000000---------000000---------000000-------------------|

E ------------------------------------------------------------------------------------|
B ------------------------------------------------------------------------------------|
G ------------------------------------------------------------------------------------|
D ------------------------------------------------------------------------------------|
A ------12,13,12,13,12,13------8,10,8,10,8,10------10,12,10,12,10,12------7,8,7,8,7,8-|
D 000000--------------000000------------000000--------------000000--------------------|


E ------------------------------------------------------------------------------------|
B ------------------------------------------------------------------------------------|
G ------------------------------------------------------------------------------------|
D ------------------------------------------------------------------------------------|
A ------12,13,12,13,12,13------8,10,8,10,8,10------10,12,10,12,10,12------7,8,7,8,7,8-|
D 000000--------------000000------------000000--------------000000--------------------|


then it goes back to beginning again
E  ----------------------------------------------------|
B  ----------------------------------------------------|
G  -------8-8-8--------8-8-8--------8-8-8--------8-8-8-|
D  -------8-8-8--------8-8-8--------8-8-8--------8-8-8-|
A  -------6-6-6--------6-6-6--------6-6-6--------6-6-6-|
D  000000-6-6-6-000000-6-6-6-000000-6-6-6-000000-6-6-6-|

E ----------------------------------------------------|
B ----------------------------------------------------|
G ----------------------------------------------------|
D ----------------------------------------------------|
A ----------------------------------------------------|
D 000000-5-5-5-000000-5-5-5-000000-5-5-5-000000-3-3-3-|


E  ----------------------------------------------------|
B  ----------------------------------------------------|
G  -------8-8-8--------8-8-8--------8-8-8--------8-8-8-|
D  -------8-8-8--------8-8-8--------8-8-8--------8-8-8-|
A  -------6-6-6--------6-6-6--------6-6-6--------6-6-6-|
D  000000-6-6-6-000000-6-6-6-000000-6-6-6-000000-6-6-6-|

E ----------------------------------------------------|
B ----------------------------------------------------|
G ----------------------------------------------------|
D ----------------------------------------------------|
A ----------------------------------------------------|
D 000000-5-5-5-000000-5-5-5-000000-5-5-5-000000-3-3-3-|


E ---------------------------------------------------------------------|
B ---------------------------------------------------------------------|
G ---------------------------------------------------------------------|
D ---------------------------------------------------------------------|
A ------7,8,7,8,7,8------0,1,0,1,0,1------3,5,3,5,3,5------1,3,1,3,1,3-|
D 000000--------000000---------000000---------000000-------------------|


E ---------------------------------------------------------------------|
B ---------------------------------------------------------------------|
G ---------------------------------------------------------------------|
D ---------------------------------------------------------------------|
A ------7,8,7,8,7,8------0,1,0,1,0,1------3,5,3,5,3,5------1,3,1,3,1,3-|
D 000000--------000000---------000000---------000000-------------------|


E ------------------------------------------------------------------------------------|
B ------------------------------------------------------------------------------------|
G ------------------------------------------------------------------------------------|
D ------------------------------------------------------------------------------------|
A ------12,13,12,13,12,13------8,10,8,10,8,10------10,12,10,12,10,12------7,8,7,8,7,8-|
D 000000--------------000000------------000000--------------000000--------------------|


E ------------------------------------------------------------------------------------|
B ------------------------------------------------------------------------------------|
G ------------------------------------------------------------------------------------|
D ------------------------------------------------------------------------------------|
A ------12,13,12,13,12,13------8,10,8,10,8,10------10,12,10,12,10,12------7,8,7,8,7,8-|
D 000000--------------000000------------000000--------------000000--------------------|


E  ----------------------------------------------------|
B  ----------------------------------------------------|
G  -------8-8-8--------8-8-8--------8-8-8--------8-8-8-|
D  -------8-8-8--------8-8-8--------8-8-8--------8-8-8-|
A  -------6-6-6--------6-6-6--------6-6-6--------6-6-6-|
D  000000-6-6-6-000000-6-6-6-000000-6-6-6-000000-6-6-6-|


E -------------------------------------------------------|
B -------------------------------------------------------|
G -------------------------------------------------------|
D 2-3-0--5-7-0--2-3-0--5-7-0--2-3-0--5-7-0--2-3-0--5-7-0-|
A 2-3-0--5-7-0--2-3-0--5-7-0--2-3-0--5-7-0--2-3-0--5-7-0-|
D 2-3-0--5-7-0--2-3-0--5-7-0--2-3-0--5-7-0--2-3-0--5-7-0-|

This part you have to strum the notes very fast a lot of times but i don't know how but 
could figure it out by listening
E -------------------------------------------------------------|
B -------------------------------------------------------------|
G -------------------------------------------------------------|
D 12(many times fast) 14(a couple times) 15(a couple times) 17(a couple times) 19 (many times)
A -------------------------------------------------------------|
D -------------------------------------------------------------|

E ---------------------------------------------------------------|
B ---------------------------------------------------------------|
G ---------------------------------------------------------------|
D 2-3-0x--5-7-0x--2-3-0x--5-7-0x--2-3-0x--5-7-0x--2-3-0x--5-7----|0x
A 2-3-0x--5-7-0x--2-3-0x--5-7-0x--2-3-0x--5-7-0x--2-3-0x--5-7----|0x
D 2-3-0x--5-7-0x--2-3-0x--5-7-0x--2-3-0x--5-7-0x--2-3-0x--5-7----|0x

E ---------------------------------------------------------|
B ---------------------------------------------------------|
G ---------------------------------------------------------|
D 2-3-0--5-7-0--2-3-0--5-7-0x--2-3-0--5-7-0x--2-3-0--5-7-0-|
A 2-3-0--5-7-0--2-3-0--5-7-0x--2-3-0--5-7-0x--2-3-0--5-7-0-|
D 2-3-0--5-7-0--2-3-0--5-7-0x--2-3-0--5-7-0x--2-3-0--5-7-0-|

After this there is about thirty more seconds of an outro but i i don't have time to tab 
you enjoyed this, rate if you did
            
Submit corrections

comments powered by Disqus
↑ Back to top | P.O.D. Tabs for God Forbid. Lyrics for acoustic guitar and electric guitar. 1 Tablatures and chords are parodies/interpretations of the original songs. You may use it for private study, scholarship, research or language learning purposes only