» » »

P.O.D., Ghetto Bass tabs (ver.2)

Artists:  A B C D E F G H I J K L M N O P Q R S T U V W X Y Z # 

Ghetto Bass tabs (ver.2)

P.O.D. Tabs
 Rating:
4/5 (4 votes)
Ghetto lessons Tabs too difficult? Try these video lessons and learn fast
1
                Tuning: E,A,D,G

Chorus

G|----------------------------------------------------------------|
D|----------------------------------------------------------------|
A|-5h7-7--7-7--7--5-5-5-5-5--3-3-3--3--3---0-0-0------------------|
E|---------------------------------------------------3-3-3--------|


Verse

G|-------------------------------------------------------------------|
D|-------------------------------------------------------------------|
A|-3--3-3--3-3--3--3-3-3-3---7-7--7-7--7-7--7--7----2---0------------|
E|----------------------------------------------------------3--------|


"Living in this world of pain"

G|-----------------------------------|
D|-----------------------------------|
A|-3-3--3---3-3--3--3-3--3-3--3-3----|
E|-----------------------------------|


"The world is a ghetto"

G|-----------------------------------------------|
D|-----------------------------------------------|
A|-7-7--7-7--7-7-7--7--7--7--5h7--7-7--7--7------|
E|-----------------------------------------------|


guitar solo:

G|---------------------------------------------------------------|
D|---------------------------------------------------------------|
A|-3-3-3-3-3--3-3---3-3--3--3-3--3--7--7-7-7-7-7----7--7--7-7----|
E|---------------------------------------------------------------|


I'm pretty sure these are the main riffs played.
You can do lots of different variations, just listen to the song. 
            
Submit corrections

comments powered by Disqus
↑ Back to top | P.O.D. Bass for Ghetto. Lyrics for acoustic guitar and electric guitar. 1 Tablatures and chords are parodies/interpretations of the original songs. You may use it for private study, scholarship, research or language learning purposes only