>
 >
Full Colour

Full Colour Guitar Tabs

P.O.D. - Full Colour chords, tabs, tablatures, lyrics

Guitar lessons | Add/correct | Request | Top 50 tabs Artists:  A B C D E F G H I J K L M N O P Q R S T U V W X Y Z 0-9

Full Colour Guitar Tabs – P.O.D.

CD, Sheet music, Poster

Do you like Full Colour? Share with your friends now
Tabs
Band- P.O.D.
Album- Brown
Song- Full Colour
Drop D

Intro-(Clean)
E------------------------------------------------------------------------------|
B------------------------------------------------------------------------------|
G------------------------------------------------------------------------------|
D---x-x--10h12--------x-x--8h10-------5h7---x-x--3h5-3-------------------------| 
A---x-x-----------12--x-x---------10--------x-x----------5-----------------3-5-| 
D-0-x-x---------------x-x-------------------x-x--------------0--3-2-3-5--------|

Verse-(Distortion) 
E----------------------------------------------------------------------| 
B----------------------------------------------------------------------| 
G----------------------------------------------------------------------| 
D-0-0-0-0--------3----------------3---0-0-0-0---------3---0-0-0-0-6--5-| 
A-0-0-0-0---------------------3-------0-0-0-0-------------0-0-0-0-6--5-| 
D-0-0-0-0--2-3--------0-2-3-----------0-0-0-0----2-3------0-0-0-0-6--5-| 
P.M.....                              .......             .......

Bridge-(Distortion) 
E---------------------------------------------------| 
B---------------------------------------------------| 
G---------------------------------------------------| 
D-6-5-2-2-2--3-2-2-2--3-2-2-2---8/7-| 
A-6-5-2-2-2--3-2-2-2--3-2-2-2---8/7-| 
D-6-5-2-2-2--3-2-2-2--3-2-2-2---8/7-|
P.M          ................

Bridge 2-(Distrotion) 
E---------------| 
B---------------| 
G-------------7-| 
D-0h3-0h3-0---x-|
A-0h3-0h3-0---5-| 
D-0h3-0h3-0-----| 

Then-(Distrotion)
E---------------------------------------| 
B---------------------------------------| 
G---------7--7/10------------5--5/7-----| 
D-0--0-0--x--x-x---0--0-0-0--x--x-x-----| 
A-0--0-0--5--5/8---0--0-0-0--3--3/5-----| 
D-0--0-0-----------0--0-0-0-------------| 
P.M.....           ........

Then-(Distortion)
E--------------|
B--------------| 
G---------7~---| 
D-0--0-0--x----| 
A-0--0-0--5~---| 
D-0--0-0-------| 
P.M.....

-(Distortion) 
E-----------------| 
B-----------------| 
G-----------------| 
D-0--0-0-0-2-3-5--| 
A-0--0-0-0-2-3-5--| 
D-0--0-0-0-2-3-5--|  
P.M.............

Chorus-(Distortion) 
E----------------------------------11--| 
B------------------------11h13---------| 
G--------------------------------------| 
D-0------------------------------------| 
A-0------------------------------------| 
D-0--0-3b-0-5b-0-5b--------------------|

Breakdown-(Distortion) 
E---------------------------------------------------------| 
B------3~-----------3~--------3~--------------------------| 
G------2~-----------2~--------2~--------------------------| 
D-0----0~-----3/1---0~----0---0~-----3p2-3p2-3p2-3p2/4/0--|
A-0----0~-----3/1---0~----0---0~-----3p2-3p2-3p2-3p2/4/0--| 
D-0----0~-----3/1---0~----0---0~-----3p2-3p2-3p2-3p2/4/0--| 
 
Outro-(Distortion) 
E------------| 
B------------| 
G------------| 
D-7-3-x-x-2--| 
A-7-3-x-x-2--| 
D-7-3-x-x-2--|





Comments


Popular P.O.D. tabs & chords
Youth Of A Nation 1 Bass Tabs
Southtown Drum Tabs
Can You Feel It Intro Tabs
Full Color Tabs
Set It Off Tabs
Set It Off 2 Tabs
Set It Off 4 Tabs
Sounds Like War 1 Tabs
When Angels And Serpents Dance Tabs
Will You 2 Tabs


Song lyrics



↑ Back to top | Tablatures and chords are parodies/interpretations of the original songs. You may use it for private study, scholarship, research or language learning purposes only
© 2014 AZChords.com Contact us | Privacy policy | DMCA | Add/correct tabs | Request tabs | Top 50 tabs