>
 >
Eyez

Eyez Guitar Tabs

P.O.D. - Eyez chords, tabs, tablatures, lyrics

Guitar lessons | Add/correct | Request | Top 50 tabs Artists:  A B C D E F G H I J K L M N O P Q R S T U V W X Y Z 0-9

Eyez Guitar Tabs – P.O.D.

CD, Sheet music, Poster

Do you like Eyez? Share with your friends now
Tabs
P.O.D.: Eyez




Tuning: Drop C (C,G,C,F,A,D)

Notes: Very easy one if you take out the leads (which are pretty easy in
their own right). I can't hear the intro fade in solo so that's practically
impossible to tab accurately so you can improvise it. The other lead you can
 also improvise if you want. It's a very "loose" solo, but I tried to tab it as 
accurately as I could.

Riff 1 (fade in) "When it all goes down! We will rise!"
D|---------------------------------|
A|---------------------------------|
F|---------------------------------|
C|-2-2-2-2-3-3-3-3-5-5-5-5-0-0-0-0-|
G|-2-2-2-2-3-3-3-3-5-5-5-5-0-0-0-0-|
C|-2-2-2-2-3-3-3-3-5-5-5-5-0-0-0-0-|

Play Riff 1 x6 (last time, don't play the open chords at the end)

Riff 2   "One vision, death has risen..."
D|-------------------------------------------------------------|
A|-------------------------------------------------------------|
F|-------------------------------------------------------------|
C|---------2p0---------2p0-----------------0---------0---------|
G|-------------------------------------------------------------|
C|-2h3-2p0-----2h3-2p0-----2h3-2p0-2h3-2p0---2h3-2p0---2h3-2p0-|

Note: Let the 4th string ring out the entire time. The very first time he
plays this riff, it doesn't sound like he plays the 2nd fret note on the 4th
 string, possibly a studio error or maybe it was intended, I don't know but
every other time it's played like I tabbed. Also the 2p0 pull-off on the 4th
string is delayed slightly so it creates a lazy pull-off sound.

Play Riff 2 x2

Riff 3   "Millennium rains..."
D|-------------------------------------------------------------|
A|-------------------------------------------------------------|
F|-------------------------------------------------------------|
C|---------2p0---------2p0-----------------0---------0---------|
G|-------------------------------------------------------------|
C|-2-3-2-0-----2-3-2-0-----2-3-2-0-2-3-2-0---2-3-2-0---2-3-2-0-|
   * * * *     * * * *     * * * * * * * *   * * * *   * * * *

Play Riff 3 x2

Riff 4   "When it all goes down, we will rise!"
D|-----------------------------------------------------------------|
A|-----------------------------------------------------------------|
F|-----------------------------------------------------------------|
C|-2-2-2-2-3-3-3-3-5-5-5-5-0-0-0-0-2-2-2-2-3-3-3-3-5-5-5-5-0--0--0-|
G|-2-2-2-2-3-3-3-3-5-5-5-5-0-0-0-0-2-2-2-2-3-3-3-3-5-5-5-5-0--0--0-|
C|-2-2-2-2-3-3-3-3-5-5-5-5-0-0-0-0-2-2-2-2-3-3-3-3-5-5-5-5-0--0--0-|
                                                           *  *  *

Play Riff 4 x2   "...you haven't seen, nothing yet!"
Play Riff 2 x1   (w/ wah)
Play Riff 2 x2   "Awake and scream..."
Play Riff 3 x2   "And keep laughing now..."
Play Riff 4 x2   "When it all goes down, we will rise..."
                 (last time don't play the palm mutes at the end)

Riff 5 (also solo backing)
D|-----------------------------------------------------|
A|-----------------------------------------------------|
F|-----------------------------------------------------|
C|-2----0--0--0-2----0--0--0-5----0--0--0-2----0--0--0-|
G|-2----0--0--0-2----0--0--0-5----0--0--0-2----0--0--0-|
C|-2----0--0--0-2----0--0--0-5----0--0--0-2----0--0--0-|
        *  *  *      *  *  *      *  *  *      *  *  *

Solo (w/ wah)
D|----------------------------------------------------------------|
A|------------7h8p7\5/7-7h8p7\5/7-7h8p7\5-7'-8'-10'-12'-12h13p12~-|
F|----------------------------------------------------------------|
C|-7~---5~--------------------------------------------------------|
G|----------------------------------------------------------------|
C|----------------------------------------------------------------|

D|-17b18-14h15p14----15-17b18-|
A|----------------17----------|
F|----------------------------|
C|----------------------------|
G|----------------------------|
C|----------------------------|

D|-12t15------------------------------------------------|
A|-------12t15------------------------------------------|
F|-------------12t14-------------------12h14-14p12-14b~-|
C|-------------------12t14-------12h14------------------|
G|-------------------------12h14------------------------|
C|------------------------------------------------------|

Note: This solo is probably not 100%, but it's the basic idea. Like I've
said, it's probably easier just to improvise it. Also the backing guitar
holds the D chord at the end of the solo and into Riff 3.

Play Riff 3 x2    "...right in front of your eyes!"
Play Riff 4 x2    "...you ain't seen nothin' yet!"

Note: For this final chorus, he plays the second half of Riff 4 an additional
 2 times at the very end. That's all!

Tab key:
12t15 = trill (fast hammer-on and pull-offs)
7' = tremolo pick note
h = hammer-on
p = pull-off
* (under note) = palm mute





Comments


Popular P.O.D. tabs & chords
Boom Bass Tabs
Freestyle 1 Bass Tabs
Snuff The Punk Bass Tabs
Alive 2 Tabs
Execute The Sounds 1 Tabs
School Of Hard Knocks Live Tabs
Sounds Like War 2 Tabs
Southtown 8 Tabs
Tell Me Why 1 Tabs
Strength Of My Life Ukulele


Song lyrics



↑ Back to top | Tablatures and chords are parodies/interpretations of the original songs. You may use it for private study, scholarship, research or language learning purposes only
© 2014 AZChords.com Contact us | Privacy policy | DMCA | Add/correct tabs | Request tabs | Top 50 tabs