» » »

Eyes Of A Stranger Tabs (ver.1)

Artists:  A B C D E F G H I J K L M N O P Q R S T U V W X Y Z # 

Eyes Of A Stranger Tabs (ver.1)

P.O.D.
Rating:
0/5 (0 votes)

Hard to play? Try these video lessons and learn fast.
                ----------------------------------------------------------------------------
                         Eyes of a stranger by P.O.D
----------------------------------------------------------------------------

Tuning:Drop D

Intro/verse
     Cm         A#
e|----3----------1---------------------------------------------------------|
B|----4----------3---------------------------------------------------------|
G|----5----------3---------------------------------------------------------|
D|----5----------3---------------------------------------------------------|
A|-------------------------------------------------------------------------|
E|-------------------------------------------------------------------------|
  Strum the chords for the 1st verse. Chuck for the 2nd verse. Listen to track for timings.

Chorus
   C     G            F     D#          C      A#              F   G A#
e|-------------------------------------------------------------------------|
B|-------------------------------------------------------------------------|
G|-------------------------------------------------------------------------|
D|-------------------------------------------------------------------------|
A|-3-3-1----------1------------------1---3-3-6-1-----------1---------1-----|
E|-------5----3-5---5-3-3-5-1----3-5---5---------------3-5---5-3-3-5-------|
   Played once for 1st chorus,twice for 2nd chorus,4 times for the last chorus.

Bridge

e|-------------------------------------------------------------------------|
B|-------------------------------------------------------------------------|
G|-------------------------------------------------------------------------|
D|-----1-1-1-0-0-0------------------------1-1-1-0-0-0-3-3-3-0-0-0-1-1------|
A|-1-1-------------1-1-1-------------1-1-----------------------------------|
E|-----------------------5-5-5-6-6-----------------------------------------|
  Play thrice palm muted.

e|-------------------------------------------------------------------------|
B|-------------------------------------------------------------------------|
G|-------------------------------------------------------------------------|
D|-----1-1-1-0-0-0---------------------1-1-1-0-0-0-------------------------|
A|-1-1-------------1-1-1-----------1-1-------------3-----------------------|
E|-----------------------5-5-5-6-6-----------------------------------------|
  Play once palm muted. Hold the last note.



| /  slide up
| \  slide down
| h  hammer-on
| p  pull-off
| ~  vibrato
| +  harmonic
| x  Mute note
===============================================================================
This is the first tab that I sent in. Any mistakes please correct.
            
Hard to play? Try these video lessons and learn fast. | Correct




comments powered by Disqus
↑ Back to top | Tablatures and chords are parodies/interpretations of the original songs. You may use it for private study, scholarship, research or language learning purposes only