» » »

Checking Levels Tabs (ver.2)

Artists:  A B C D E F G H I J K L M N O P Q R S T U V W X Y Z # 

Checking Levels Tabs (ver.2)

P.O.D.
Rating:
0/5 (0 votes)

Hard to play? Try these video lessons and learn fast.
                Tuning : Drop D
(Low To High : D A D G B E)

This is cool to play , ive just figure it out a moments ago.
Try it !

|------------------------------------------------|
|------------------------------------------------|
|------------------------------------------------|
|--------0------------------0--------------------|
|-----0-----3--1---------0-----3--1---5p3-5------|
|--0------------------0--------------------------|

Thats when Sunny start to sing .

|-----------------------------------------------------|
|-----------------------------------------------------|
|-----------------------------------------------------|
|--------10--8--7-----------10--8--7---8p7-8---7p5-7--|
|-----0------------------0----------------------------|
|--0------------------0-------------------------------|
            
Hard to play? Try these video lessons and learn fast. | Correct




comments powered by Disqus
↑ Back to top | Tablatures and chords are parodies/interpretations of the original songs. You may use it for private study, scholarship, research or language learning purposes only