» » »

Checking Levels Tabs (ver.1)

Artists:  A B C D E F G H I J K L M N O P Q R S T U V W X Y Z # 

Checking Levels Tabs (ver.1)

P.O.D.
Rating:
0/5 (0 votes)

Hard to play? Try these video lessons and learn fast.
                Hehe... this little thing is pretty cool.  Not like anyone would ever want to 
perform it or anything, but it sounds pretty easy.. so here it is.

Drop-D Tuning

INTRO (if you wanna call it an intro)
e|-----------------------------------------|
B|-----------------------------------------|
G|-----------------------------------------|
D|-----------------------------------------| play two times
A|----0--5--3--1--------0--5--3--1---5p3h5-|
D|-0------------------0--------------------|
               "Yo Sonny.."

WHEN RAPPING STARTS
e|------------------------------------------------|
B|------------------------------------------------|
G|----2--5--3--2-------2--5--3--2---3p2h3---2p0h2-| play two times
D|-0----------------0-----------------------------|
A|------------------------------------------------|
D|------------------------------------------------|

then play the "intro" again and fade out.


Wow, isn't that easy?  Fun huh?


Ryan Sanders
Fry's Hall of Tabs
            
Hard to play? Try these video lessons and learn fast. | Correct




comments powered by Disqus
↑ Back to top | Tablatures and chords are parodies/interpretations of the original songs. You may use it for private study, scholarship, research or language learning purposes only