» » »

P.O.D., Bullet The Blue Sky Tabs (ver.3)

Artists:  A B C D E F G H I J K L M N O P Q R S T U V W X Y Z # 

Bullet The Blue Sky Tabs (ver.3)

P.O.D. Tabs
 Rating:
4/5 (4 votes)
Bullet The Blue Sky lessons Tabs too difficult? Try these video lessons and learn fast
                pod 
bullet the blue sky
TUNING: drop d (D,A,D,G,B,E) 
 
 
        ^ = bend 
       () = palm mute 
 
 
     INTRO: 
 
    |---------------| 
    |---------------| 
    |-----------10^-| 
    |-(0-0-0-0)--x--| 
    |-(0-0-0-0)--8^-| 
    |-(0-0-0-0)-----| 
 
     VERSE: 
 
    |---| 
    |---| 
    |---| 
    |-0-| 
    |-0-| 
    |-0-| 
 
     CHORUS: 
 
    |----------------------------------| 
    |----------------------------------| 
    |-7--7-7-7/9--9-9-10-10-10-10-5--5-| 
    |-x--x-x-x/x--x-x--x--x--x--x-x--x-| 
    |-5--5-5-5/7--7-7--8--8--8--8-3--3-| 
    |----------------------------------| 
 
     INTERLUDE PART: 
 
    |-10-----------10----------10-----------10------------------------------| 
    |------10----------10-----------10----------10--------------------------| 
    |----------10---------10------------10---------10--10-11-12----10-11-12-| 
    |-----------------------------------------------------------------------| 
    |-----------------------------------------------------------------------| 
    |-----------------------------------------------------------------------| 
 
    |-10-----------10----------10-----------10----------------------------------| 
    |------10----------10-----------10----------10------------------------------| 
    |----------10---------10------------10---------10--10-11-12----10/11--10/11-| 
    |---------------------------------------------------------------------------| 
    |---------------------------------------------------------------------------| 
    |---------------------------------------------------------------------------| 
 
    |------------------------------------------| 
    |------------------------------------------| 
    |-10/11--10/11--10/11--10/11--10/11--10/11-| 
    |------------------------------------------| 
    |------------------------------------------| 
    |------------------------------------------| 
 
    |-------------------------------------------------13^-13^-13^-13^-| 
    |-13---\---12--\--10----------13---\---12--\--10------------------| 
    |---------------------10/-----------------------------------------| 
    |-----------------------------------------------------------------| 
    |-----------------------------------------------------------------| 
    |-----------------------------------------------------------------| 
 
    |-13^-13^-13^-13^-15^-15^-15^-15^-15^-15^-15^-15^-| 
    |-------------------------------------------------| 
    |-------------------------------------------------| 
    |-------------------------------------------------| 
    |-------------------------------------------------| 
    |-------------------------------------------------|
            
Submit corrections

comments powered by Disqus
↑ Back to top | P.O.D. Tabs for Bullet The Blue Sky. Lyrics for acoustic guitar and electric guitar. Tablatures and chords are parodies/interpretations of the original songs. You may use it for private study, scholarship, research or language learning purposes only