» » »

P.O.D., Boom Tabs (ver.6)

Artists:  A B C D E F G H I J K L M N O P Q R S T U V W X Y Z # 

Boom Tabs (ver.6)

P.O.D. Tabs
 Rating:
4/5 (4 votes)
Boom lessons Tabs too difficult? Try these video lessons and learn fast
1
                
Band: P.O.D
Tuning Standard:
e B G D A E

Intro:
e|-------------------------------------------------------------------|
B|-------------------------------------------------------------------|
G|-------------------------------------------------------------------|
D|-------------------------------------------------------------------|
A|-------------------------------------------------------------------|
E|-2-2-2-2-2-0-0-0-2-2-2-2-2-0-0-0-5-5-5-5-5—7-7-7-7-0-0-0-----------|

Add some distortion for the next
Main Riff:
e|----------------------------------------------------------------|
B|----------------------------------------------------------------|
G|----------------------------------------------------------------|
D|-4-4-4-4-4-2-2-2-4-4-4-4-4-2-2-2-7-7-7-7-7-9-9-9-9-2-2-2--------|x2
A|-2-2-2-2-4-0-0-0-2-2-2-2-2-0-0-0-5-5-5-5-5-7-7-7-7-0-0-0--------|
E|-2-2-2-2-2-0-0-0-2-2-2-2-2-0-0-0-5-5-5-5-5—7-7-7-7-0-0-0--------|

All the verses come with palm muted
Verse #1:
e|----------------------------------------------------------------|
B|----------------------------------------------------------------|
G|----------------------------------------------------------------|
D|----------------------------------------------------------------|x4
A|-4-4-4-4-4-2-2-2-4-4-4-4-4-2-2-2-7-7-7-7-7-9-9-9-9-2-2-2--------|
E|-2-2-2-2-2-0-0-0-2-2-2-2-2-0-0-0-5-5-5-5-5—7-7-7-7-0-0-0--------|
“JAJA, I never knew that a kid like me…”

This part with distortion
e|----------------------|
B|----------------------|
G|----------------------|
D|----------------------|
A|-9-9-9-9-2-2-2--------|
E|-7-7-7-7-0-0-0--------|

Pre-chorus:
e|----------------------------------------------------------------|
B|----------------------------------------------------------------|
G|----------------------------------------------------------------|
D|-4-4-4-4-4-2-2-2-4-4-4-4-4-2-2-2-7-7-7-7-7-9-9-9-9-2-2-2--------|x2
A|-4-4-4-4-4-2-2-2-4-4-4-4-4-2-2-2-7-7-7-7-7-9-9-9-9-2-2-2--------|
E|-2-2-2-2-2-0-0-0-2-2-2-2-2-0-0-0-5-5-5-5-5—7-7-7-7-0-0-0--------|

e|---------|
B|---------|
G|---------|
D|-14/0----|
A|-14/0----|
E|-12/0----|










Chorus #1:
e|----------------------------------------------------------------|
B|----------------------------------------------------------------|
G|--------/9-9-------------/9-9-----------------------------------|
D|-4-4----/9-9------4-4----/9-9--------------2---------------2----|x2
A|-2-2----/7-7------2-2----/7-7----7-7-7-7-7-2-----7-7-7-7-7-2----|
E|-2-2--------------2-2------------5-5-5-5-5-0-----5-5-5-5-5-0----|

Verse #2:
e|----------------------------------------------------------------|
B|----------------------------------------------------------------|
G|----------------------------------------------------------------|
D|----------------------------------------------------------------|x4
A|-4-4-4-4-4-2-2-2-4-4-4-4-4-2-2-2-7-7-7-7-7-9-9-9-9-2-2-2--------|
E|-2-2-2-2-2-0-0-0-2-2-2-2-2-0-0-0-5-5-5-5-5—7-7-7-7-0-0-0--------|
   “We after saw so what you talking ‘bout…”

e|----------------------|
B|----------------------|
G|----------------------|
D|----------------------|
A|-9-9-9-9-2-2-2--------|
E|-7-7-7-7-0-0-0--------|

Pre-chorus:
e|----------------------------------------------------------------|
B|----------------------------------------------------------------|
G|----------------------------------------------------------------|
D|-4-4-4-4-4-2-2-2-4-4-4-4-4-2-2-2-7-7-7-7-7-9-9-9-9-2-2-2--------|x2
A|-4-4-4-4-4-2-2-2-4-4-4-4-4-2-2-2-7-7-7-7-7-9-9-9-9-2-2-2--------|
E|-2-2-2-2-2-0-0-0-2-2-2-2-2-0-0-0-5-5-5-5-5—7-7-7-7-0-0-0--------|

e|---------|
B|---------|
G|---------|
D|-14/0----|
A|-14/0----|
E|-12/0----|

Chorus #2:
e|----------------------------------------------------------------|
B|----------------------------------------------------------------|
G|--------/9-9-------------/9-9-----------------------------------|
D|-4-4----/9-9------4-4----/9-9--------------2---------------2----|x4
A|-2-2----/7-7------2-2----/7-7----7-7-7-7-7-2-----7-7-7-7-7-2----|
E|-2-2--------------2-2------------5-5-5-5-5-0-----5-5-5-5-5-0----|


Bridge:
e|--------------|
B|--------------|
G|--------------|
D|-2~-----------|
A|-2~-----------|
E|-0~-----------|
e|----------------------------------------------------------------|
B|----------------7-----------------------------------------------|
G|----------------------------------------------------------------|
D|-----5-----5--5-------5------5----------------------------------|x2
A|---5-----5----------5------5-----5h7p5--------------------------|
E|-3-----3----------3------3--------------------------------------|
“Is all you got, jaja, I take your best shot…”

e|---------------------------|
B|---------------------------|
G|---------------------------|
D|-14/0-----14/0-------------|x2
A|-14/0-----14/0----5h7p5----|
E|-12/0-----12/0-------------|

Chorus #3:
e|----------------------------------------------------------------|
B|----------------------------------------------------------------|
G|----------------------------------------------------------------|
D|-4-4----------4-4------------------2---------------2------------|x2
A|-2-2----------2-2--------7-7-7-7-7-2-----7-7-7-7-7-2------------|
E|-2-2----------2-2--------5-5-5-5-5-0-----5-5-5-5-5-0------------|

Chorus #4:
e|----------------------------------------------------------------|
B|----------------------------------------------------------------|
G|--------/9-9-------------/9-9-----------------------------------|
D|-4-4----/9-9------4-4----/9-9--------------2---------------2----|x2
A|-2-2----/7-7------2-2----/7-7----7-7-7-7-7-2-----7-7-7-7-7-2----|
E|-2-2--------------2-2------------5-5-5-5-5-0-----5-5-5-5-5-0----|

Key:

/: Slide
h hammer on
p pull off
~: Let ring
            
Submit corrections

comments powered by Disqus
↑ Back to top | P.O.D. Tabs for Boom. Lyrics for acoustic guitar and electric guitar. 1 Tablatures and chords are parodies/interpretations of the original songs. You may use it for private study, scholarship, research or language learning purposes only