» » »

Boom Bass tabs (ver.4)

Artists:  A B C D E F G H I J K L M N O P Q R S T U V W X Y Z # 

Boom Bass tabs (ver.4)

P.O.D.
Rating:
0/5 (0 votes)

Hard to play? Try these video lessons and learn fast.
                Tunning:i'm guessing A,D,A,D,G 'cause the song is in drop D but the 
slide in the 1st riff is on the 5th string so its ezer to just tune
them both down but dont tune the other strings,just the 4 & 5th


Riff 1
g:------------|
d:------------|
a:------------|
d:-------5---0|
a:7///--------|

Riff 2
g:-----------------------------------|
d:-----------------------------------|
a:-----------------------------------|
d:2222-2-000-0-2222-2-000-0-555-5-777|
a:-----------------------------------|

Riff 3:
g:-------------------------------|
d:-----0-------0-----------------|
a:-------------------------------|
d:2-2-(0)-2-2-(0)-77777-0-77777-0|(at the end of the song)
a:-------------------------------|

Bridge:
g:-------------------------------------------------|
d:-------------------------------------------------|
a:-------------------------------------------------|
d:2----2-0-----0-2-----2-0------2/12------2-----2-0|
a:-------------------------------------------------|

Riff 4:
g:-------------------------------|
d:-------------------------------|
a:-------------------------------|
d:2-2-----2-2-----77777-0-77777-0|
a:-------------------------------|
            
Hard to play? Try these video lessons and learn fast. | Correct




comments powered by Disqus
↑ Back to top | Tablatures and chords are parodies/interpretations of the original songs. You may use it for private study, scholarship, research or language learning purposes only