» » »

Boom Bass tabs (ver.2)

Artists:  A B C D E F G H I J K L M N O P Q R S T U V W X Y Z # 

Boom Bass tabs (ver.2)

P.O.D.
Rating:
0/5 (0 votes)

Hard to play? Try these video lessons and learn fast.
                Tuning D-A-D-G

Great track. Work the timing out, it's not too hard. Enjoy!

Guitar Intro

Verse
G|------------------|------------------|
D|------------------|------------------| x8
A|------------------|------------------|
D|-2222000022220000-|-5555555577777777-|

Chorus
G|------------------|------------------|
D|-------0-------0--|------------------| x2
A|------------------|-00000---00000----|
D|-2-2-2---2-2-2----|------0-------0---|

Verse
G|------------------|------------------|
D|------------------|------------------| x6
A|------------------|------------------|
D|-2222000022220000-|-5555555577777777-|

Chorus
G|------------------|------------------|
D|-------0-------0--|------------------| x4
A|------------------|-00000---00000----|
D|-2-2-2---2-2-2----|------0-------0---|

Bridge
G|------------------|------------------|
D|------------------|------------------| x6
A|------------------|------------------|
D|-2222000022220000-|-5555555577777777-|

G|------------------|------------------|
D|------------------|------------------| x4
A|------------------|------------------|
D|-2~---------------|-0~---------------|

Chorus
G|------------------|------------------|
D|------------------|------------------| x2
A|------------------|-00000---00000----|
D|-2-2-----2-2------|------0-------0---|

G|------------------|------------------|
D|-------0-------0--|------------------| x2
A|------------------|-00000---00000----|
D|-2-2-2---2-2-2----|------0-------0---|
            
Hard to play? Try these video lessons and learn fast. | Correct




comments powered by Disqus
↑ Back to top | Tablatures and chords are parodies/interpretations of the original songs. You may use it for private study, scholarship, research or language learning purposes only