» » »

P.O.D., Asthma Bass tabs (ver.1)

Artists:  A B C D E F G H I J K L M N O P Q R S T U V W X Y Z # 

Asthma Bass tabs (ver.1)

P.O.D. Tabs
 Rating:
4/5 (4 votes)
Asthma lessons Tabs too difficult? Try these video lessons and learn fast
                Band- POD
Song- Asthma

/ = slide
. = staccato (short)

Intro: 3x                           | 4th time:
F-----------------------------------|--------------------------------|
C-----------------------------------|--------------------------------|
G-----------------------------------|--------------------------------|
C---0------------3--------5---------|----0--------3-------5--5--5----|

**Chorus: 2x
F--------------------------------------------------------------------------------------------------|
C--------------------------------------------------------------------------------------------------|
G--------------------------------------------------------------7--7---8--8---10--10--10--10--10----|
C-----8--8--8-8-8-8-8-8-8-8-8-8-8-8-8-8--0--0--0--0--0--0--0---------------------------------------|

Chorus Breakdown:
F--------------------------------------------------------------------------------------------------|
C--------------------------------------------------------------------------------------------------|
G--------------------------------------------------------------------------------------------------|
C-----8--8--8--8-------------8--8--8--8------------7--7--7--7------------7--7--7--7----------------|

Verse:
F--------------------------------------------------------------------------------------------------|
C--------------------------------------------------------------------------------------------------|
G-------0----------------------------------------------------------------3-----------------5-------|
C---0------------0-----3----3---5--5------------0--------------0-------3---3-------0-----5---5-----|

Then:
F------------------------------------------------------------------------------------------------|
C------------------------------------------------------------------------------------------------|
G-------0------------------------------------------------------------3---------------------------|
C---0------------0-----3-------5------------0--------------0-------3---3----------5--5--5--------|

**Chorus: 2x
F--------------------------------------------------------------------------------------------------|
C--------------------------------------------------------------------------------------------------|
G--------------------------------------------------------------7--7---8--8---10--10--10--10--10----|
C-----8--8--8-8-8-8-8-8-8-8-8-8-8-8-8-8---0--0--0--0--0--0--0--------------------------------------|

Chorus Breakdown:
F----------------------------------------------------------------------------------------------|
C----------------------------------------------------------------------------------------------|
G----------------------------------------------------------------------------------------------|
C-----8--8--8--8-------------8--8--8--8-------------7--7-7-7---------------7--7--7--7----------|

Solo: 2x
F---------------------------------------------------------------------|
C---------------------------------------------------------------------|
G------------------------------5--------------------------------------|
C---0----10---7---5---0--0----------0---10---12---7--7--5---7--8-8----|

**Chorus: 2x
F-------------------------------------------------------------------------------------------------|
C-------------------------------------------------------------------------------------------------|
G-------------------------------------------------------------7--7---8--8---10--10--10--10--10----|
C-----8--8--8-8-8-8-8-8-8-8-8-8-8-8-8-8--0--0--0--0--0--0--0--------------------------------------|

Chorus Breakdown:   2x                                                                   
                           2nd time ends w/:
F---------------------------------------------------------------------------------|---------------|
C--------------8--8--8--8---------------/8------------7--7--7--7--------------/10-|--10-10-10-10--|
G---------------------------------------------------------------------------------|---------------|
C---8--8--8--8--------------8--8--8--8------7-7-7-7---------------7--7--7--7------|---------------|

Outro: 2x
F-----------------------------------|--------------------------------------------------|
C-----------------------------------|--------------------------------------------------|
G-----------------------------------|--------------------------------------------------|
C---0------------3--------5---------|-----0--0-------0--0----0--0-----0--0---------0---|
                                          .          .       .        .
            
Submit corrections

comments powered by Disqus
↑ Back to top | P.O.D. Bass for Asthma. Lyrics for acoustic guitar and electric guitar. Tablatures and chords are parodies/interpretations of the original songs. You may use it for private study, scholarship, research or language learning purposes only