>
 >
Anything Right

Anything Right Guitar Tabs

P.O.D. - Anything Right chords, tabs, tablatures, lyrics

Guitar lessons | Add/correct | Request | Top 50 tabs Artists:  A B C D E F G H I J K L M N O P Q R S T U V W X Y Z 0-9

Anything Right Guitar Tabs – P.O.D.

CD, Sheet music, Poster

Do you like Anything Right? Share with your friends now
Bass TabsTabsTabs v2
Band- POD
Song- Anything Right

Drop C:
C G C F A D

< > = harmonics

Intro: Fig. 1

d-----------------------------------------------------------------|
a-----------------------------------------------------------------|
f-----------------------------------------------------------------|
c-2-2-2-0-2-----------------------2-2-2-0-2-----------------------|
g-2-2-2-0-2------7-------5--------2-2-2-0-2------7-------5-----0--|
c-2-2-2-0-2----0---4---0---2---0--2-2-2-0-2----0---4---0---2---0--|

d-----------------------------------------------------------------|
a-----------------------------------------------------------------|
f-----------------------------------------------------------------|
c-2-2-2-0-2-4---------------------2-2-2-0-2-4---------------------|
g-2-2-2-0-2-4----7-------5--------2-2-2-0-2-4-----7-------5-------|
c-2-2-2-0-2-4-0----4---0---2---0--2-2-2-0-2-4--0----4---0---2---0-|

d-----------------------------------------------------------------|
a-----------------------------------------------------------------|
f-----------------------------------------------------------------|
c-2-2-2-0-2-----------------------2-2-2-0-2-----------------------|
g-2-2-2-0-2------7-------5--------2-2-2-0-2------7-------5-----0--|
c-2-2-2-0-2----0---4---0---2---0--2-2-2-0-2----0---4---0---2---0--|

d-----------------------------------------------------------------|
a-----------------------------------------------------------------|
f-----------------------------------------------------------------|
c-2-2-2-0-2-4---------------------2-2-2-0-2-4----2--4-------------|
g-2-2-2-0-2-4----7-------5--------2-2-2-0-2-4-0--2--4---5---------|
c-2-2-2-0-2-4-0----4---0---2---0--2-2-2-0-2-4-0--2--4---5--0------|

Verse: Riff A

d-----------------------------------------------------|
a-----------------------------------------------------|
f-------0----------0---------0------------------------|
c----0---------0----------0-------------2----------2--|
g------------------------------------2---------2------|
c-2----------2----------2---------0----------0--------|

gtr. 1

d--------------------------------------------------------------|
a--------------------------------------------------------------|
f--------------0-----------------------------------------------|
c-------4---------4----------4---------4/12-12----14-----16\---|
g----0--------------------0---------0--------------------------|
c-0----------0-------0--0--------0-----------------------------|

Riff B: gtr. 2

d---------------------------------------------------------------|
a---------------------------------------------------------------|
f-----------------------------------<5>---<5>---<5---<5>--------|5>
c---------------------------------<5>---<5>---<5>--<5>----<5>---|
g-------------------------------<5>-----------------------------|
c---------------------------------------------------------------|

right before chorus:

d-------------------------------|
a-------------------------------|
f-------------------------------|
c-------0----------4---------4--|
g----0--------2------------0----|
c-0---------0----------0--------|

Chorus: Fig. 1

Verse 2: Riff A, then A & B

Guitar Solo:

gtr. 1 w/ wah x2

d-----------------------------------------------------------------------------|
a-----------------------------------------------------------------------------|
f-----------------------------------------------------------------------------|
c-4---------------------------4-5-4-----------4-5-5/7---5h7p5\4--5-4----------|
g--------------------------------------------------------------------7--------|
c-----------------------------------------------------------------------------|

gtr. 2 x2

d-----------------------------------------------------------------------------|
a-----------------------------------------------------------------------------|
f-----------------------------------------------------------------------------|
c-----------------------------------------------------------------------------|
g-0-------------------------------5-4-5-4-4-4-5-5-5-4-4-4-5-5-4-0-------------|
c-0-------------------------------5-4-5-4-4-4-5-5-5-4-4-4-5-5-4-0-2-----------|

then,

gtr. 1 w/ wah

d-----------------------------------------------------------------|
a-----------------------------------------------------------------|
f-----------------------------------------------------------------|
c-4h5-4h5-4h5-5-4~~~~~~~~~~~~~~---4brbrbr-------------------------|
g-----------------------------------------------------------------|
c--------------------------------------------------x\-------------|

gtr. 2

d-----------------------------------------------------------------|
a-----------------------------------------------------------------|
f-----------------------------------------------------------------|
c-----------------------------------------------------------------|
g-----------------------------------------------------------------|
c-0-0---0---0---------------------0----------------x\-------------|

Outro: x3

d-----------------------------------------------------------------|
a-----------------------------------------------------------------|
f-----------------------------------------------------------------|
c-----------------------------------------------------------------|
g-2-2-2-0-2----0--2----0--2----0----4-4-4-0-4-4-4-0-4-4-4-0-4-4-4-|
c-2-2-2-0-2----0--2----0--2----0----4-4-4-0-4-4-4-0-4-4-4-0-4-4-4-|

then,

d-----------------------------------------------------------------|
a-----------------------------------------------------------------|
f-----------------------------------------------------------------|
c-----------------------------------------------------------------|
g-2-2-2-0-2----0--2----0--2----0----4-4-4-0-4-4-4-2---4---5-2-----|
c-2-2-2-0-2----0--2----0--2----0----4-4-4-0-4-4-4-2---4---5-2-----|





Comments


Popular P.O.D. tabs & chords
Get Up, Stand Up Bass Tabs
Portrait Bass Tabs
Snuff The Punk Bass Tabs
Will You Drum Tabs
Boom 3 Tabs
Condescending Live Tabs
Guitarras De Amor 2 Tabs
Rock The Party 2 Tabs
Satellite Tabs
Satellite 1 Tabs


Song lyrics



↑ Back to top | Tablatures and chords are parodies/interpretations of the original songs. You may use it for private study, scholarship, research or language learning purposes only
© 2014 AZChords.com Contact us | Privacy policy | DMCA | Add/correct tabs | Request tabs | Top 50 tabs