» » »

P.O.D., Alive Tabs (ver.7)

Artists:  A B C D E F G H I J K L M N O P Q R S T U V W X Y Z # 

Alive Tabs (ver.7)

P.O.D. Tabs
 Rating:
4/5 (4 votes)
Alive lessons Tabs too difficult? Try these video lessons and learn fast
                Alive-P.O.D.
Satellite

Drop C
C G C F A D

fig 1. intro/verses x 3

d--------------------------------------------------------------
a--------------------------------------------------------------
f--------------------------------------------------------------
c-2-2-2-0-2---------------5-5-5-5-5-5-5-5-------5-5-5-5-5-5-5--
g-2-2-2-0-2-------0-0-0-0-3-3-3-3-3-3-3-3-------3-3-3-3-5-5-5--
c-2-2-2-0-2---------------------------------------------5-5-5--

fill 1

d--------------------------------------------------------------
a--------------------------------------------------------------
f--------------------------------------------------------------
c-2-2-2-0-2---------------5-5-5-5-5-5-5-5-------5-5-----5-5----
g-2-2-2-0-2-------0-0-0-0-3-3-3-3-3-3-3-3-------5-5-----5-5----
c-2-2-2-0-2-------------------------------------5-5-0-0-5-5-0--

Chorus:

d---------------2----------------------------------------------
a---------------3----------------------------------------------
f-0-0-0-0-0-0-0-0----------------------------------------------
c-x-x-x-x-x-x-x-x------0--0-2-2-2-2-5-5-5-4-4-4--4-4-4--0------
g-3-3-3-3-3-3-3-3------0--0-2-2-2-2-2-2-2-2-2-2--2-2-2--0------
c----------------------0--0-2-2-2-2-2-2-2-2-2-2--2-2-2--0------

d--------------------------------------------------------------
a--------------------------------------------------------------
f--------------------------------------------------------------
c-5-5-5-5-5-5-5-5-5-5-5-5-5-----5-5-5-5-5-5-5-5----------------
g-5-5-5-5-5-5-5-5-5-5-5-5-5-----5-5-5-5-5-5-5-5-10p9\7-9--7\5p0
c-5-5-5-5-5-5-5-5-5-5-5-5-5-0---5-5-5-5-5-5-5-5----------------

interlude: w/ delay and flanger

d------------------------14h15p14--15p14--15p14--15p14-15p14---
a--------------------------------------------------------------
f--------------------------------------------------------------
c-2-------5-4-------0------------------------------------------
g--------------------------------------------------------------
c--------------------------------------------------------------

d-15p14--15p14--15p14--15p14h15p14h15--------------------------
a--------------------------------------------------------------
f--------------------------------------------------------------
c--------------------------------------------------------------
g--------------------------------------------------------------
c--------------------------------------------------------------

breakdown

d------------------------0-------------------------------------
a------------------------0-------------------------------------
f------------------------0-------------------------------------
c-2-------5-4-------0------------------------------------------
g---------------------------x\\\\pick-slide--x\\\\\\\\\--------
c--------------------------------------------------------------

d-----------------------------14h15p14--15p14--15p14-15p14-14--
a--------------------------------------------------------------
f--------------------------------------------------------------
c-2-------5-4-------0------------------------------------------
g---------------------------0----------------------------------
c--------------------------------------------------------------

outro:

d--------------------------------------------------------------
a--------------------------------------------------------------
f--------------------------------------------------------------
c-2-2-2-0-2--------2-2-0-2-0-2----2-2-2-0-2--------2-2-0-2-0-2-
g-2-2-2-0-2--------2-2-0-2-0-2----2-2-2-0-2--------2-2-0-2-0-2-
c-2-2-2-0-2--------2-2-0-2-0-2----2-2-2-0-2--------2-2-0-2-0-2-

d--------------------------------------------------------------
a--------------------------------------------------------------
f--------------------------------------------------------------
c-2-2-2-0-2--------2-2-0-2-0-2----2-2-2-0-2--------2-2-0-2-0-4-
g-2-2-2-0-2--------2-2-0-2-0-2----2-2-2-0-2--------2-2-0-2-0-2-
c-2-2-2-0-2--------2-2-0-2-0-2----2-2-2-0-2--------2-2-0-2-0-2-

that?s it

trevor jones
            
Submit corrections

comments powered by Disqus
↑ Back to top | P.O.D. Tabs for Alive. Lyrics for acoustic guitar and electric guitar. Tablatures and chords are parodies/interpretations of the original songs. You may use it for private study, scholarship, research or language learning purposes only