>
 >
Addicted 1

Addicted 1 Guitar Tabs

P.O.D. - Addicted 1 chords, tabs, tablatures, lyrics

Guitar lessons | Add/correct | Request | Top 50 tabs Artists:  A B C D E F G H I J K L M N O P Q R S T U V W X Y Z 0-9

Addicted 1 Guitar Tabs – P.O.D.

CD, Sheet music, Poster

Do you like Addicted 1? Share with your friends now
TabsTabs v2
        I have no idea if the solo is right, but here it is
D|-----------------------------------------------------------------|
A|-----------------------------------------------------------------|
F|-----------------------------------------------------------------|
C|-----------------------------------------------------------------|
G|-----------------------------------------------------------------|
C|-2-2-XXX-2-2-XXX-2-2-XXX-2-2-XXX---------------------------------|

pre-chorus: (00:05 - 00:42)

D|-----------------------------------------------------------------\---- |
A|---------------------------------------------------------------------- | \
F|---------------------------------------------------------------------- |  \
C|-2-2-XXX-2-2-XXX-2-2-XXX-2-2-765~~~----------------------------------- |   \
G|-2-2-XXX-2-2-XXX-2-2-XXX-2-2-765~~~----------------------------------- |    \
C|-2-2-XXX-2-2-XXX-2-2-XXX-2-2-765~~~----------------------------------- |     \
                                                                         x2
D|---------------------------------------------------------------------- |     /
A|---------------------------------------------------------------------- |    /
F|---------------------------------------------------------------------- |   /
C|-0-0-XXX-0-0-XXX-0-0-XXX-0-0-432~~~----------------------------------- |  /
G|-0-0-XXX-0-0-XXX-0-0-XXX-0-0-432~~~----------------------------------- | /
C|-0-0-XXX-0-0-XXX-0-0-XXX-0-0-432~~~----------------------------------- |

chorus: (00:43 - 01:02)

D|-----------------------------------------------------------------|
A|-----------------------------------------------------------------|
F|-------9-9-9-11-11-11-12-12--------------------------------------|  x4
C|-2--2--9-9-9-11-11-11-12-12-12-12-12-----------------------------|
G|-2--2--7-7-7-9 -9 -9 -10-10-12-12-12-----------------------------|
C|-2--2-----------------------12-12-12-----------------------------|

D|-----------------------------------------------------------------|
A|-----------------------------------------------------------------|
F|---------9-9-9-11-11-11-12-12------------------------------------|  x2
C|-10--10--9-9-9-11-11-11-12-12-12-12-12---------------------------|
G|-10--10--7-7-7-9 -9 -9 -10-10-12-12-12---------------------------|
C|-10--10-----------------------12-12-12---------------------------|

D|-----------------------------------------------------------------|
A|-----------------------------------------------------------------|
F|-------9-9-9-11-11-11-12-12--------------------------------------|  x2
C|-7--7--9-9-9-11-11-11-12-12-12-12-12-----------------------------|
G|-7--7--7-7-7-9 -9 -9 -10-10-12-12-12-----------------------------|
C|-7--7-----------------------12-12-12-----------------------------|

(01:02 - 01:04)

D|-----------------------------------------------------------------|
A|-----------------------------------------------------------------|
F|-----------------------------------------------------------------|
C|-----------------------------------------------------------------|
G|-----------------------------------------------------------------|
C|-2-2-XXX-2-2-XXX-------------------------------------------------|

pre-chorus (01:04 - 01:41)

D|-----------------------------------------------------------------|
A|-----------------------------------------------------------------|
F|-----------------------------------------------------------------|
C|-2-2-XXX-2-2-XXX-2-2-XXX-2-2-765~~~------------------------------|
G|-2-2-XXX-2-2-XXX-2-2-XXX-2-2-765~~~------------------------------|
C|-2-2-XXX-2-2-XXX-2-2-XXX-2-2-765~~~------------------------------|

D|-----------------------------------------------------------------|
A|-----------------------------------------------------------------|
F|-----------------------------------------------------------------|
C|-0-0-XXX-0-0-XXX-0-0-XXX-0-0-432~~~--------------------X-XXXXXX--|
G|-0-0-XXX-0-0-XXX-0-0-XXX-0-0-432~~~--------------------X-XXXXXX--|
C|-0-0-XXX-0-0-XXX-0-0-XXX-0-0-432~~~--------------------X-XXXXXX--|

D|-----------------------------------------------------------------|
A|-----------------------------------------------------------------|
F|-----------------------------------------------------------------|
C|-2-2-XXX-2-2-XXX-2-2-XXX-2-2-765~~~------------------------------|
G|-2-2-XXX-2-2-XXX-2-2-XXX-2-2-765~~~------------------------------|
C|-2-2-XXX-2-2-XXX-2-2-XXX-2-2-765~~~------------------------------|

D|-----------------------------------------------------------------|
A|-----------------------------------------------------------------|
F|-----------------------------------------------------------------|
C|-0-0-XXX-0-0-XXX-0-0-XXX-0-0-432~~~------------------------------|
G|-0-0-XXX-0-0-XXX-0-0-XXX-0-0-432~~~------------------------------|
C|-0-0-XXX-0-0-XXX-0-0-XXX-0-0-432~~~------------------------------|

chorus: (01:41 - 2:20)
                                                                        _
D|------------------------------------------------------------------------ |      \
A|-----------------------------------------------------------------     -- |
F|-------9-9-9-11-11-11-12-12--------------------------------------  x4 -- |
C|-2--2--9-9-9-11-11-11-12-12-12-12-12-----------------------------     -- |
G|-2--2--7-7-7-9 -9 -9 -10-10-12-12-12-----------------------------     -- |
C|-2--2-----------------------12-12-12-----------------------------     -- |
                                                                         |
D|-----------------------------------------------------------------      |
A|-----------------------------------------------------------------      |
F|---------9-9-9-11-11-11-12-12------------------------------------  x2  |x2
C|-10--10--9-9-9-11-11-11-12-12-12-12-12---------------------------      |
G|-10--10--7-7-7-9 -9 -9 -10-10-12-12-12---------------------------      |
C|-10--10-----------------------12-12-12---------------------------      |
                                                                         |
D|-----------------------------------------------------------------     -- |
A|-----------------------------------------------------------------     -- |
F|-------9-9-9-11-11-11-12-12--------------------------------------  x2 -- |
C|-7--7--9-9-9-11-11-11-12-12-12-12-12-----------------------------     -- |
G|-7--7--7-7-7-9 -9 -9 -10-10-12-12-12-----------------------------     -- |
C|-7--7-----------------------12-12-12------------------------------------ |

D|-------------------------------------------------------------------------|
A|-------------------------------------------------------------------------|
F|-------------------------------------------------------------------------|
C|-------------------------------------------------------------------------|
G|-------------------------------------------------------------------------|
C|-2-0-2-5-4--------x4-----------------------------------------------------|

D|-------------------------------------------------------------------------|
A|-------------------------------------------------------------------------|
F|-7--7-7-7-7-7777---7-7-7-9999-7--------------------x2--------------------|
C|-5--5-5-5-5-5555-2-5-5-5-7777-5------------------------------------------|
G|-7--7-7-7-7-7777-2-7-7-7-7777-7------------------------------------------|
C|-----------------2-------------------------------------------------------|


                       solo  (2:35-2:44)
D|--------------------------------------------15-12------------------------|
A|-------------------------------------------------15-12-------------------|
F|------------------------------19-17h16-16-19----------14-12--------------|
C|-14h12h14h12-14-17-19-21-19-17-----------------------------14-12---------|
G|----------------------------------------------------------------14-12----|
C|--------------------------------------------------------------------14-12|

D|-------------------------------------------------------------------------|
A|-------------------------------------------------------------------------|
F|----------------12-14-16-------------------------------------------------|
C|-----------12-14---------------------------------------------------------|
G|------12-14--------------------------------------------------------------|
C|-12-14-------------------------------------------------------------------|

This is the whole song, but not sure if the solo is right. It is hard for me to 
predict if its right. 

       





Comments


Popular P.O.D. tabs & chords
Preach 1 Bass Tabs
Rock The Party Bass Tabs
Shouts Bass Tabs
Southtown Bass Tabs
Boom Chords
Alive Intro Tabs
Change The World Tabs
Freestyle Tabs
Goodbye For Now Intro Tabs
Southtown 5 Tabs


Song lyrics



↑ Back to top | Tablatures and chords are parodies/interpretations of the original songs. You may use it for private study, scholarship, research or language learning purposes only
© 2014 AZChords.com Contact us | Privacy policy | DMCA | Add/correct tabs | Request tabs | Top 50 tabs