» » »

Pmtoday, Thoughts In Transit Tabs (ver.1)

Artists:  A B C D E F G H I J K L M N O P Q R S T U V W X Y Z # 

Thoughts In Transit Tabs (ver.1)

Pmtoday Tabs
Rating:
0/5 (0 votes)
Thoughts In Transit lessons Tabs too difficult? Try these video lessons and learn fast
                These are the chords you play
Listen to the song for timing and etc...



            V--V listen for these two's timing
e|-0--1---------------------------|
B|-1--3--3--1--1------------------|
G|-2--2--4--0--0------------------|
D|-2--0--5--2--0------------------|
A|-0--------3--2------------------|
E|--------------------------------|



e|-0--1--0-----------------------|
B|-1--3--0--5--------------------|
G|-2--2--1--4--------------------|
D|-2--0--2--6--------------------|
A|-0-----2--0--------------------|
E|-------0-----------------------|

Play that twice, but on the 4th time play this instead

e|-0--0--0----------------------|
B|-1--0--1----------------------|
G|-2--1--2----------------------|
D|-2--2--2----------------------|
A|-0--2--0----------------------|
E|----0-------------------------|

Then that all again, afterwards playing

e|-------------------------------|
B|--5--5--3--1-------------------|
G|--4--5--4--2-------------------|
D|--6--7--5--3-------------------|
A|--7----------------------------|
E|-------------------------------|


Right after he says "I can write whatever I please" go into the 3rd and 4th chords, then 
repeat without the 1st one, listen for timing.
            

comments powered by Disqus
↑ Back to top | Pmtoday Tabs for Thoughts In Transit. Lyrics for acoustic guitar and electric guitar. Tablatures and chords are parodies/interpretations of the original songs. You may use it for private study, scholarship, research or language learning purposes only