» » »

The Side Effects Of Bass tabs (ver.1)

Artists:  A B C D E F G H I J K L M N O P Q R S T U V W X Y Z # 

The Side Effects Of Bass tabs (ver.1)

Pmtoday
Rating:
0/5 (0 votes)

Hard to play? Try these video lessons and learn fast.
                G-----------------------------------------------------------------|
D-----------------------------------------------------------------|
A-----------------------------------------------------------------|
D-4-4-4-4-4-4-4-4-4-4-4-4-4-4-4-4-0-0-0-0-0-0-0-0-0-0-0-0-0-0-0-0-|


G--------------------------------------------------------------------------|
D---------------------------7/6--------------------------------------------|
A------------------------7/9---7/4p0h2/4-----------------------------------| X2
D-4-4-4-4-4-4-4-4-4-4-4-4---------------0-0-0-0-0-0-0-0-0-0-0-0-0-0-0-0----|

G-----------------------------------------------------------------------------|
D-----------------------------------------------------------------------------|
A-----------------------------------------------------------------------------|
D-4-4-4-4-4-4-4-424-4-4-4-4-4-22440-0-0-0-0-0-0-12-12-0-0-0-0-0-0-12-12-12-12-|
            
Hard to play? Try these video lessons and learn fast. | Correct




comments powered by Disqus
↑ Back to top | Tablatures and chords are parodies/interpretations of the original songs. You may use it for private study, scholarship, research or language learning purposes only