» » »

Pmtoday, Sad World Tabs (ver.1)

Artists:  A B C D E F G H I J K L M N O P Q R S T U V W X Y Z # 

Sad World Tabs (ver.1)

Pmtoday Tabs
Rating:
5/5 (2 votes)
Sad World lessons Tabs too difficult? Try these video lessons and learn fast
                (Intro)
opening riff

E------------------------|
B------------------------|
G------2/4--2------------|
D---------4--4p2p0-------|
A----2-------------4p0h2-|
D-0-2-5------------------|

full intro

E-----------------------------------------------------------------------|
B-----3/5p0----------3/5p0----------------3/5p0-------------------------|
G----------4\2p0----------4\2p0----------------4\2p0-7/9p0h4h7t12p7p4p0-|
D-2-------------2--------------4------2---------------------------------|
A---3--------------3-------------5/7s---3-------------------------------|
D-----------------------------------------------------------------------|

                                       
E-------------------------------------777----------------------------|
B-----3/5p0-------------------3/5p0---888-------3/5p0----------------|
G----------4\2p0-----3p0--------------999-------------------7/9p0----|
D-2----------------4------2-----------999---2--------4----5----------|
A---3------------5----------3-----------------3--------5/7-----------|
D--------------------------------------------------------------------|

E-----------------0-0-0--000--|
B-----3/5p0-------0-0-0--000--|
G----------4\2p0--8-8-8--888--|
D-2---------------7-7-7--777--|
A---3-------------9-9-9--999--|
D-----------------------------|
            

comments powered by Disqus
↑ Back to top | Pmtoday Tabs for Sad World. Lyrics for acoustic guitar and electric guitar. Tablatures and chords are parodies/interpretations of the original songs. You may use it for private study, scholarship, research or language learning purposes only