» » »

Pluto, When She Was Happy Tabs (ver.1)

Artists:  A B C D E F G H I J K L M N O P Q R S T U V W X Y Z # 

When She Was Happy Tabs (ver.1)

Pluto Tabs
 Rating:
4/5 (4 votes)
When She Was Happy lessons Tabs too difficult? Try these video lessons and learn fast
                When She Was Happy- Pluto
Tuning: EADGBe
PM= palm mute   /= slide   ~ =hold note

This song rules. And it has a LOT of parts to make it sound wicked! Here goes!

All verses are like this:
e --------------------------------|--------------------------------
B --------------------------------|-(then LET RING!)---------------
G -PM-------------------9-9-------|----------------------9-9-------
D -6-6-6-6-6-6-6-6-6-6--9-9--9-9--|-6-6-6-6-6-6-6-6-6-6--9-9--9-9--
A -6-6-6-6-6-6-6-6-6-6--7-7--9-9--|-6-6-6-6-6-6-6-6-6-6--7-7--9-9--
E -4-4-4-4-4-4-4-4-4-4-------7-7--|-4-4-4-4-4-4-4-4-4-4-------7-7--

2nd part of first verse: "they think she's gorgeous" and "we could go dancing"
e ------------------------------
B ------------------------------
G ----------------------8--6-6--
D -6-6-6-6-6-6-6-6-6-6--8--6-6--
A -6-6-6-6-6-6-6-6-6-6--6--4-4--
E -4-4-4-4-4-4-4-4-4-4----------

Pre-chorus: "She said she don't remember, she said she don't remember"
e -----------------------------------|-------------------
B -----------------------------------|-------------------
G -9-9-9-9-9-9-9-9--9-9-9-9-9-9-9-9--|-9-8-9-9/11-9-8-9--
D -9-9-9-9-9-9-9-9--9-9-9-9-9-9-9-9--|-------------------
A -7-7-7-7-7-7-7-7--7-7-7-7-7-7-7-7--|-------------------
E -----------------------------------|-------------------

Chorus: "When she was happy. When she was happy."
e ------------------|------------------|------------------|-------------------
B ------------------|------------------|------------------|-------------------
G -8--6-6--9-9--8-8-|-8--6-6-------8-8-|-8--6-6--9-9--8-8-|-8--6-6--9-9--8-8--
D -8--6-6--9-9--8-8-|---------9-9------|-8--6-6--9-9--8-8-|-------------------
A -6--4-4--7-7--6-6-|------------------|-6--4-4--7-7--6-6-|-------------------
E ------------------|------------------|------------------|-------------------

Ah-ah-ah-ah-ah-ah part:
e -------------------------------------------
B -------------------------------------------
G -------------------------------------------
D -4-4-4-4-4-4-4-4-4-4--7-7-7-7-7-7-7-7-7-7--
A -4-4-4-4-4-4-4-4-4-4--7-7-7-7-7-7-7-7-7-7--
E -2-2-2-2-2-2-2-2-2-2--5-5-5-5-5-5-5-5-5-5--

Solo: I can't get the chords played under this.
e -----------------------------------------------------------------------
B -------------------------------------------------9----9-----------9----
G -6--8-8-8--9-9-9--8-8---6--8-8-8--9-9-9--8--9/11---11---11-11-11---11--
D -----------------------------------------------------------------------
A -----------------------------------------------------------------------
E -----------------------------------------------------------------------

Solo: (Continued)
e -----------------------------------------------------------
B -11/12-12-12--11-11-11-11--9-9-9-9--7-7-7-7--5-5-5-5-------
G ------------------------------------------------------7-6--
D -----------------------------------------------------------
A -----------------------------------------------------------
E -----------------------------------------------------------

Before 3rd verse:
First part: X4   2nd part: X2   3rd part: once
e ---------------------------|---------------------------------|-------------
B ------------------9-9--7-7-|---------------------------------|-------------
G -6-6-6-6-6-6-6-6--8-8--6-6-|-----------------4-4-4-4-4-4-4-4-|-4---4-------
D -6-6-6-6-6-6-6-6--6-6--4-4-|-7-7-7-7-7-7-7-7-4-4-4-4-4-4-4-4-|-4-4-4-4-6~--
A -4-4-4-4-4-4-4-4-----------|-7-7-7-7-7-7-7-7-2-2-2-2-2-2-2-2-|-2-4-2-4-6~--
E ---------------------------|-5-5-5-5-5-5-5-5-----------------|---2---2-4~--

Ending:
e -------------------------------------------------------------------
B -------------------------------------------------------------------
G -8--6-6-------8-8-----8--6-6--9-9--8-8-----8--6-6--8-9-8-9-8-(11)--
D ---------9-9-------------------------------------------------------
A -------------------------------------------------------------------
E -------------------------------------------------------------------

Chords: F#5: 244xxx   G#5: 466xxx   A5: 577xxx   B5: x244xx & 799xxx
        C#5: x466xx   D#5: x688xx   E5: x799xx   F#5(2): xx467x   G#5(2): xx689x
            
Submit corrections

comments powered by Disqus
↑ Back to top | Pluto Tabs for When She Was Happy. Lyrics for acoustic guitar and electric guitar. Tablatures and chords are parodies/interpretations of the original songs. You may use it for private study, scholarship, research or language learning purposes only