» » »

Playjerise, Simple Things Tabs (ver.1)

Artists:  A B C D E F G H I J K L M N O P Q R S T U V W X Y Z # 

Simple Things Tabs (ver.1)

Playjerise Tabs
 Rating:
4/5 (4 votes)
Simple Things lessons Tabs too difficult? Try these video lessons and learn fast
1
                Tuning ( Standard --> drop 2nd string (A) down to (G) )

e
B
G
D
G
E


I doubt this is the original way the song was done as it is too bizzare, but it sounds 
great and i am happy with it.

If you want this song in the same key as the recording, tune it all down one 1/2 step.


Intro/Verse One:

e|----5-----7p5-5- ----5-----7p5-5- ----------10---- ----------7-----|
B|---------------- ---------------- ----8---------0- ----8---------8-|
G|--7---7--------- --7---7--------- --7---7--------- --7---7---------|
D|--------5------- --------5------- ---------------- ----------------|
G|0--------------- 5--------------- 9-------9------- ----------------|
E|---------------- ---------------- ---------------- 8-------8-------|(x4)

e|---------------- ----------------|
B|----10----10---- 10----10----10--|
G|--7---7-----7--- --7-----7-----7-|
D|---------------- ----------------|
G|---------------- ----------------|
E|10------10----10 ----10----10----|

Pre-Chorus:

e|---------------- ---------------- ---------------- ----------------|
B|----8-----8----- 8-----8-----8--- ----8-----8----- 8-----8-----8---|
G|--7---7-----7--- --7-----7----7-- --7---7-----7--- --7-----7-----7-|
D|---------------- ---------------- ---------------- ----------------|
G|9-------9-----9- ----9-----9----- ---------------- ----------------|
E|---------------- ---------------- 8-------8-----8- ----8-----8-----|

e|----5-----5----- 5------5-----5-- ---------------- ----------------|
B|---------------- ---------------- ----10----10---- 10----10----10--|
G|--7---7-----7--- --7------7----7- --7---7-----7--- --7-----7-----7-|
D|5-------5-----5- -----5-----5---- ---------------- ----------------|
G|---------------- ---------------- ---------------- ----------------|
E|---------------- ---------------- 10------10----10 ----10----10----|(Pause)

Interlude/Verse 2

e|----5-----7p5-5- ----5-----7p5-5- ----------10---- ----------7-----|
B|---------------- ---------------- ----8---------0- ----8---------8-|
G|--7---7--------- --7---7--------- --7---7--------- --7---7---------|
D|--------5------- --------5------- ---------------- ----------------|
G|0--------------- 5--------------- 9-------9------- ----------------|
E|---------------- ---------------- ---------------- 8-------8-------|(x4)

e|---------------- ----------------|
B|----10----10---- 10----10----10--|
G|--7---7-----7--- --7-----7-----7-|
D|---------------- ----------------|
G|---------------- ----------------|
E|10------10----10 ----10----10----|

Pre-Chorus:

e|---------------- ---------------- ---------------- ----------------|
B|----8-----8----- 8-----8-----8--- ----8-----8----- 8-----8-----8---|
G|--7---7-----7--- --7-----7----7-- --7---7-----7--- --7-----7-----7-|
D|---------------- ---------------- ---------------- ----------------|
G|9-------9-----9- ----9-----9----- ---------------- ----------------|
E|---------------- ---------------- 8-------8-----8- ----8-----8-----|

e|----5-----5----- 5------5-----5-- ---------------- ----------------|
B|---------------- ---------------- ----10----10---- 10----10----10--|
G|--7---7-----7--- --7------7----7- --7---7-----7--- --7-----7-----7-|
D|5-------5-----5- -----5-----5---- ---------------- ----------------|
G|---------------- ---------------- ---------------- ----------------|
E|---------------- ---------------- 10------10----10 ----10----10----|(x2)

Chorus: (Listen for strumming)

e|---------------- ---------------- ---------------- ----------------|
B|0--------------- 0--------------- 0--------------- 0---------------|
G|7--------------- 7--------------- 0--------------- 0---------------|
D|9--------------- 7--------------- 5--------------- 7---------------|
G|9--------------- 5--------------- 7--------------- 7---------------|
E|0--------------- ---------------- 7--------------- 5---------------|(x2)

Bridge:

e|15-------------- 10-------------- 7--------------- 0---------------|
B|12-------------- 10-------------- 8--------------- 7---------------|
G|0--------------- 0--------------- 0--------------- 7---------------|
D|0--------------- 0--------------- 0--------------- 0---------------|
G|---------------- ---------------- ---------------- 0---------------|
E|---------------- ---------------- ---------------- ----------------|(x4)

(Let each chord ring)

e|---------------- ---------------- ---------------- ----------------|
B|0--------------- 0--------------- 0--------------- 0---------------|
G|7--------------- 7--------------- 0--------------- 0---------------|
D|9--------------- 7--------------- 5--------------- 7---------------|
G|9--------------- 5--------------- 7--------------- 7---------------|
E|0--------------- ---------------- 7--------------- 5---------------|

Outro:

e|----5-----7p5-5- ----5-----7p5-5- ----------10---- ----------7-----  -|
B|---------------- ---------------- ----8---------0- ----8---------8-  0|
G|--7---7--------- --7---7--------- --7---7--------- --7---7---------  0|
D|--------5------- --------5------- ---------------- ----------------  5|
G|0--------------- 5--------------- 9-------9------- ----------------  7|
E|---------------- ---------------- ---------------- 8-------8-------  7|
            
Submit corrections

comments powered by Disqus
↑ Back to top | Playjerise Tabs for Simple Things. Lyrics for acoustic guitar and electric guitar. 1 Tablatures and chords are parodies/interpretations of the original songs. You may use it for private study, scholarship, research or language learning purposes only