» » »

Playjerise, Secret Tabs (ver.1)

Artists:  A B C D E F G H I J K L M N O P Q R S T U V W X Y Z # 

Secret Tabs (ver.1)

Playjerise Tabs
Rating:
5/5 (3 votes)
Hard to play? Try these video lessons and learn fast.
                capo 2nd (all tab relative to capo)

two guitars
guitar 1 - George - lead
guitar 2 - Jake - rhythm

INTRO
Guitar 1
e|----------------------------------2/4-2-------2/4-2-------|
B|-0-0-2-2-4-4-5-5--0-0-2-2-4-4-5-5-------5-4-0-------5-4-0-|
G|----------------------------------------------------------|
D|----------------------------------------------------------|
A|----------------------------------------------------------|
E|----------------------------------------------------------| x2

guitar 2
Asus2, Bsus2, Asus2, Bsus2


VERSE 1
Guitar 1
e|----------------------------------2/4-2-------2/4-2-------|
B|-0-0-2-2-4-4-5-5--0-0-2-2-4-4-5-5-------5-4-0-------5-4-0-|
G|----------------------------------------------------------|
D|----------------------------------------------------------|
A|----------------------------------------------------------|
E|----------------------------------------------------------| x4

Guitar 2
          Asus2
This will be the last time
      Bsus2                 Asus2   Bsus2
That you will hold me down
	      Asus2
But this will stay forever
    Bsus2                    Asus2   Bsus2
And I don't know how to feel


PRE-CHORUS
Guitar 2
Cmaj             Am7
You wouldn't be around anymore
     Cmaj7                Am7
Pretend you will come home


CHORUS  x2
Guitar 1
e|------------------9--9----7-7-7-|
B|-----------------10-10-10-9-9-9-|
G|-6h7p6---6---6-9--------9-------|
D|-------9---7--------------------|
A|--------------------------------|
E|--------------------------------| x3		

e|---------------------------|
B|---------------7-----------|
G|-6h7p6---6---6---9-7-6-7-6-|
D|-------9---7---------------|
A|---------------------------|
E|---------------------------|
		
e|------------------9--9----7-7-7-|
B|-----------------10-10-10-9-9-9-|
G|-6h7p6---6---6-9--------9-------|
D|-------9---7--------------------|
A|--------------------------------|
E|--------------------------------| x3

e|---------------------------|
B|---------------7-----------|
G|-6h7p6---6---6---9-7-6-7-6-|
D|-------9---7---------------|
A|---------------------------|
E|---------------------------|

Guitar 2
Asus2
You're acting like you're hurt
        F#min    D
And I wish you were
       Asus2
Gone away
       F#min  D
Gone away 
Asus2
You're acting like you're hurt
        F#min    D
And I wish you were
       Asus2
Gone away
       F#min  D
Gone away      



FILL
Guitar 1
e|----------------------------------2/4-2-------2/4-2-------|
B|-0-0-2-2-4-4-5-5--0-0-2-2-4-4-5-5-------5-4-0-------5-4-0-|
G|----------------------------------------------------------|
D|----------------------------------------------------------|
A|----------------------------------------------------------|
E|----------------------------------------------------------| x2

Guitar 2
Asus2, Bsus2, Asus2, Bsus2


VERSE 2
Guitar 1
e|----------------------------------2/4-2-------2/4-2-------|
B|-0-0-2-2-4-4-5-5--0-0-2-2-4-4-5-5-------5-4-0-------5-4-0-|
G|----------------------------------------------------------|
D|----------------------------------------------------------|
A|----------------------------------------------------------|
E|----------------------------------------------------------| x4

Guitar 2
      Asus2
And I stare at the window
      Bsus2                   Asus2   Bsus2
And I watch your life unfolded
    Asus2
You told me your secret
    Bsus2                       Asus2   Bsus2
And I'm sure that I've told it


PRE-CHORUS
Guitar 2
Cmaj             Am7
You wouldn't be around anymore
     Cmaj                Am7
Pretend you will come home
Cmaj             Am7
You wouldn't be around anymore
     Cmaj7                Am7
Pretend you will come home


CHORUS  x2
Guitar 1
e|------------------9--9----7-7-7-|
B|-----------------10-10-10-9-9-9-|
G|-6h7p6---6---6-9--------9-------|
D|-------9---7--------------------|
A|--------------------------------|
E|--------------------------------| x3		

e|---------------------------|
B|---------------7-----------|
G|-6h7p6---6---6---9-7-6-7-6-|
D|-------9---7---------------|
A|---------------------------|
E|---------------------------|	
	
e|------------------9--9----7-7-7-|
B|-----------------10-10-10-9-9-9-|
G|-6h7p6---6---6-9--------9-------|
D|-------9---7--------------------|
A|--------------------------------|
E|--------------------------------| x3		

e|---------------------------|
B|---------------7-----------|
G|-6h7p6---6---6---9-7-6-7-6-|
D|-------9---7---------------|
A|---------------------------|
E|---------------------------|

Guitar 2
Asus2
You're acting like you're hurt
        F#min    D
And I wish you were
       Asus2
Gone away
       F#min  D
Gone away       
Asus2
You're acting like you're hurt
        F#min    D
And I wish you were
       Asus2
Gone away
       F#min  D
Gone away
     Asus2


OUTRO   
Guitar 1
e|-------------------------|
B|-10h12p10----10----12-14-|
G|----------13----13-------|
D|-------------------------|
A|-------------------------|
E|-------------------------| x8
    
Guitar 2
       F#min  D
Gone away
     Asus2
       F#min  D
Gone Away
        D
            

comments powered by Disqus
↑ Back to top | Playjerise Tabs for Secret. Lyrics for acoustic guitar and electric guitar. Tablatures and chords are parodies/interpretations of the original songs. You may use it for private study, scholarship, research or language learning purposes only