» » »

Playjerise, Believe It Or Not Chords (ver.1)

Artists:  A B C D E F G H I J K L M N O P Q R S T U V W X Y Z # 

Believe It Or Not Chords (ver.1)

Playjerise Tabs
 Rating:
4.3/5 (6 votes)
Believe It Or Not lessons Tabs too difficult? Try these video lessons and learn fast
                
Chords and Tabs by Daniel Nguyen

Guitar 2
Standard Tuning
Capo 2

Intro
e|------------------------3--------------------|
B|----------0-1p0-------1------0h1-------------|
G|------0-2-------0---0------0-----------------|
D|----3-------------2------0-------------------|
A|--3------------------------------------------|
E|---------------------------------------------|

Repeat that throughout the verse and pre-chorus.

Chorus
e|--8---8-10-8-10-/15-8-7-8-------------------|
B|----8---------------------------------------|
G|--------------------------------------------|
D|--------------------------------------------|
A|--------------------------------------------|
E|--------------------------------------------|

e|--8---8-10-8-10-/12----12-/17---------------|
B|----8---------------10----------------------|
G|--------------------------------------------|
D|--------------------------------------------|
A|--------------------------------------------|
E|--------------------------------------------|

Repeat it again

Keep playing it after the 2nd Chorus


Guitar 1
Standard Tuning
Capo 2nd Fret

VERSE:
F             C            G
I believe in you 
F                                     C      G	
I hope you see it in the way that I move 
F		   C           G		
People around get lost on the road 
F                            C        G
But we're better then that I know 

PRE-CHORUS:

F
Coz I found love 
       C           G    
Yea believe it or not 
F
Well I found love 
	C	     G	
Yea believe it or not 
        F		          C
Not be-cause of what I did but be-cause of 
	  G
what you did 
       F                          C
Not be-cause of what I did but be-cause of
           G
what you did 



CHORUS:
Am            G
Coz I, 
G        C             F
I don't wanna go back again 
Am                     G
Coz lately, I've been drowning here 
            C              F
And I don't wanna go back again 
F 
I don't wanna go back again 

INTERLUDE: F C G x2




PRE-CHORUS:

F
I found love 
       C           G
Yea believe it or not 
       F              C           G
Well, I found love be-lieve it or not 
       F                          C
Not be-cause of what I did but be-cause of 
          G
what you did 
       F                           C
Not be-cause of what I did but be-cause of
          G
what you did 


CHORUS:
Am              G
Coz I, 
G        C             F
I don't wanna go back again 
Am                     G
Coz lately, I've been drowning here 
G           C              F
And I don't wanna go back again 

Am           G         C           F
                       Oh no no no 

Am                           G
Coz lately I've been drowning here 
            C              F
And I don't wanna go back again 

Am
Don't wanna go back 
G
Don't wanna go back 
C
Don't wanna go back 
         F
I don't wanna go back 
Am                    G
I don't wanna go back again 


(Guitar 2 does picking from here on in which I haven't out all of it yet..)


If I go back 
Will you find me 
If I go back 
Will you find me 
Will you find me 
Will you find 
Oh will you find me 
Will you find 

And I, 
I don't wanna go back again 
Coz lately, I've been drowning 
I don't wanna go back again
            
Submit corrections

comments powered by Disqus
↑ Back to top | Playjerise Chords for Believe It Or Not. Lyrics for acoustic guitar and electric guitar. Tablatures and chords are parodies/interpretations of the original songs. You may use it for private study, scholarship, research or language learning purposes only