>
 >
10 Seconds

10 Seconds Guitar Tabs

Playjerise - 10 Seconds chords, tabs, tablatures, lyrics

Guitar lessons | Add/correct | Request | Top 50 tabs Artists:  A B C D E F G H I J K L M N O P Q R S T U V W X Y Z 0-9

10 Seconds Guitar Tabs – Playjerise

CD, Sheet music, Poster

Do you like 10 Seconds? Share with your friends now
Tabs



CAPO SECOND FRET. Standard Tuning. All tabbing relative to capo.

Please note: not all the ornamentation is included, you learn that
as your playing gets better, and it's just simply too hard to tab.

/= slide up
\= slide down
h= hammer-on
p= pull-off
x= percussive string slap

INTRO

----0-0-------------0-x-0---0-x--0-x-------------0-x-0---0-x----0-0-0-0-|
----0-0-------------0-x-0---0-x--0-x-------------0-x-0---0-x----0-0-0-0-|
-2/4-2-1------------4-x-----4-x--4-x-------------4-x-----4-x------------|
---------2/4/6\4\2--2-x-----4-x--2-x---2h4-2-----2-x-----4-x-6/7-4-2----|
-------------------4--x--4/6--x-4--x--2-----4p2-4--x--4/6--x---------2--|
----------------------x-------x----x---------------x-------x------------|

VERSE 1

(10 seconds away..)
--0-x-0-0-x-0-0-x-----------0-x-0---0-x-----0-0-0-0--0-x-0-0-x-0--0-x-0-0-x--|
--0-x-0-0-x-0-0-x-----------0-x-0---0-x-----0-0-0-0--0-x-0-0-x-0--0-x-0-0-x--|
--4-x---4-x---4-x-----------4-x-----4-x--------------4-x---4-x----4-x---4-x--|
--2-x---4-x---2-x-2h4-2-----2-x-----4-x--6/7-4-2-----2-x---2-x----4-x---4-x--|
-4--x--6--x--4--x------4p2-4--x--4/6--x----------2--4--x--4--x--6---x--6--x--|
----x-----x-----x-------------x-------x----------------x-----x------x-----x--|

(would you pick...)
--0-x-0-0---x-0-0-x-0-0-x-0--0-x-0-0-x-0---0-x-0-0-x--0-x-0-0-x-0-0-x-0-0--|
--0-x-0-0---x-0-0-x-0-0-x-0--0-x-0-0-x-0---0-x-0-0-x--0-x-0-0-x-0-0-x-0-0--|
--9-x---9-8-x---8-x---8-x----4-x---4-x-----4-x---4-x--9-x---8-x---8-x---8--|
--9-x---9---x---9-x---9-x----2-x---2-x-----4-x---4-x--9-x---9-x---9-x---9--|
-7--x--7----x-----x-----x---4--x--4--x--4/6--x--6--x-7--x--7--x-----x------|
----x-------x--7--x--7--x------x-----x-------x-----x----x-----x--7--x--7---|

(and i'm on...)
--0-x-0-0-x-0-0-x-0-0-x--0-x-0-0-x-0-0-x--0-----0-x-0-0-x-0-0-x-0-0-x-0-0-x-|
--0-x-0-0-x-0-0-x-0-0-x--0-x-0-0-x-0-0-x--0-----0-x-0-0-x-0-0-x-0-0-x-0-0-x-|
--4-x---4-x---4-x---4-x--4-x---4-x---4-x--4-----4-x---4-x---4-x---4-x---4-x-|
--2-x---2-x---2-x---2-x--2-x---2-x--1--x-2-4/6--2-x---2-x---2-x---2-x---2-x-|
-4--x-----x--0--x--0--x-4--x--2--x-----x-------4--x-----x--0--x--0--x--4--x-|
----x--4--x-----x-----x----x-----x-----x----------x--4--x-----x-----x-----x-|


-0-0-x-0-0-x-0--|
-0-0-x-0-0-x-0--|
---4-x---4-x-4--|
---2-x---2-x-1--|
--4--x--2--x----|
-----x-----x----|


VERSE 2

         (Anyway, it's...)
----0-0------------|
----0-0------------|
-2/4-2-1-----------|
---------2/4/6\4\2-|
-------------------|
-------------------|

(10 seconds away..)
--0-x-0-0-x-0-0-x-----------0-x-0---0-x-----0-0-0-0--0-x-0-0-x-0--0-x-0-0-x--|
--0-x-0-0-x-0-0-x-----------0-x-0---0-x-----0-0-0-0--0-x-0-0-x-0--0-x-0-0-x--|
--4-x---4-x---4-x-----------4-x-----4-x--------------4-x---4-x----4-x---4-x--|
--2-x---4-x---2-x-2h4-2-----2-x-----4-x--6/7-4-2-----2-x---2-x----4-x---4-x--|
-4--x--6--x--4--x------4p2-4--x--4/6--x----------2--4--x--4--x--6---x--6--x--|
----x-----x-----x-------------x-------x----------------x-----x------x-----x--|

(would you pick...)
--0-x-0-0---x-0-0-x-0-0-x-0--0-x-0-0-x-0---0-x-0-0-x--0-x-0-0-x-0-0--|
--0-x-0-0---x-0-0-x-0-0-x-0--0-x-0-0-x-0---0-x-0-0-x--0-x-0-0-x-0-0--|
--9-x---9-8-x---8-x---8-x----4-x---4-x-----4-x---4-x--9-x---8-x---8--|
--9-x---9---x---9-x---9-x----2-x---2-x-----4-x---4-x--9-x---9-x---9--|
-7--x--7----x-----x-----x---4--x--4--x--4/6--x--6--x-7--x--7--x------|
----x-------x--7--x--7--x------x-----x-------x-----x----x-----x--7---|

(and i'm on...)
--0-x-0-0-x-0-0-x-0-0-x--0-x-0-0-x-0-0-x--0----|
--0-x-0-0-x-0-0-x-0-0-x--0-x-0-0-x-0-0-x--0----|
--4-x---4-x---4-x---4-x--4-x---4-x---4-x--4----|  Do this line 2 times
--2-x---2-x---2-x---2-x--2-x---2-x--1--x-2-4/6-|
-4--x-----x--0--x--0--x-4--x--2--x-----x-------|
----x--4--x-----x-----x----x-----x-----x-------|

(i'm on my knees and...)
--0-x-0-0-x-0-0-x-0-0-x--0-x-0-0-x-0-0-x-0----|
--0-x-0-0-x-0-0-x-0-0-x--0-x-0-0-x-0-0-x-0----|
--4-x---4-x---4-x---4-x--4-x---4-x---4-x-4----|
--2-x---2-x---2-x---2-x--2-x---2-x--1--x-2----|
-4--x-----x--0--x--0--x-4--x--2--x-----x------|
----x--4--x-----x-----x----x-----x-----x------|

Interlude

  E                      A2

--2/4---2/4\2-2-----------------|
---------------5-5\4-4/5-5---0--|
--------------------------------|  Do this line 4 times
--------------------------------|
--------------------------------|
--------------------------------|


(Ohh I can't face the world...)
 B    A2   E    G#m  A2   B    A2

-0----0----0----0----0----0----0---|
-0----0----0----0----0----0----0---|
-4----2----1----4----2----4----2---|
-4----2----2----6----2----4----2---|
-2----0----2----6----0----2----0---|
-----------0----4------------------|


(without you here...)
---------------------------0-------0------7---------|
----5/7-5\4/5p4--4h5p4----0-0-----0-0---------------|
---------------4------4--4---4---4---4---8-8-8------|
----------------------------------------9---9-------|
--2-------------------------------------------------|
-0----------------------4-----4/5------7------------|

---0-------0----------------------------0----0--|
--0-0-----0-0----5/7-5\4/5p4--4h5p4----0-0---0--|
-4---4---4---4--------------4---------4---4--6--|
---------------------------------------------7--|
----------------2----------------------------7--|
4-----4/5------0---------------------4-------5--|


Enjoy





Comments


Popular Playjerise tabs & chords
Obvious To Know Chords
Saw You Chords
Belive It Or Not Intro Tabs
Cross The Line Tabs
Secret Tabs
Settle With Me Tabs
Simple Things 1 Tabs
Believe It Or Not Ukulele
Old Enough Ukulele
Saw You Ukulele


Song lyrics



↑ Back to top | Tablatures and chords are parodies/interpretations of the original songs. You may use it for private study, scholarship, research or language learning purposes only
© 2014 AZChords.com Contact us | Privacy policy | DMCA | Add/correct tabs | Request tabs | Top 50 tabs