» » »

Player, Baby Come Back Bass tabs (ver.1)

Artists:  A B C D E F G H I J K L M N O P Q R S T U V W X Y Z # 

Baby Come Back Bass tabs (ver.1)

Player Tabs
Rating:
1/5 (1 vote)
Baby Come Back lessons Tabs too difficult? Try these video lessons and learn fast
                Approximately 98% accurate. I couldn’t find a bass tab for this song ANYWHERE. I play
and the only reason I actually tabbed this for bass is because my band covers it and our
bass player was too lazy to figure it out by ear. I watched/listened to a guy cover it 

Intro/Verse

|--------------------------------------|
|-------8-8---------------5-5----------|  x3   Pt 1
|--------------8-----------------------|
|--6-------------6-8-3----------3-4--5-|


|-----------------------------|
|------8-8--------------------|
|-------------8-----------3~~-|
|--6------------6-8-3---------|

|-------------------------------------|
|-------8-8---------------5-5---------|
|--------------8----------------------|
|--6-------------6-8-3----------3-4-5-|

|---------------------------|
|------8-8------------------|
|------------8----------3~~-|
|-6------------6-8-3--------|


Intro/Verse Pt 1  x3 then,

|-----------------------------5-------|
|------8-8----------------3s5----5----|
|-------------8------3-------------3--|
|--6------------6-8-------------------|


Chorus

|-----------------------------------------|----------------3--|
|-------6-6-------------------------------|-----------3--5----|  Pt 1
|-------------6-----------3---------------|-3--5--6-----------|
|--4------------4-6-3----------1---1-2-3--|-------------------|

|-----------------------------------------|----------------|
|-------6-6-------------------------------|-----------4~---|   Pt 2
|-------------6-----------3---------------|--1-2-3---------|
|--4------------4-6-3----------1---1-2-3--|----------------|


Verse Pt 1 x4 then,

|-----------------------------5-------|
|------8-8----------------3s5----5----|
|-------------8------3-------------3--|
|--6------------6-8-------------------|

Chorus Pt 1 then Pt 2 (as pictured) transitioning into Bridge


|-----------------------------------------|----------------------|
|-------6-6-------------------------------|----------------------|
|-------------6-----------3---------------|--1-2-3----4---1--1---|
|--4------------4-6-3----------1---1-2-3--|----------------------|


Bridge

|------------------------------------------|
|------------------------------------------|   x2
|-------------------4---4-4-------4-4------|
|--2---2-2----4-6-------------4h6-----6p4--|

|--------------------------------------3--|
|----------------------------------1s3----|
|------------4--------1---1--1---1--------|
|--2---2-2------2--1----------------------|


Chorus Pt 1 then,

|-----------------------------------------|-------------------|
|-------6-6-------------------------------|-----------3----5--|
|-------------6-----------3---------------|--1--3-------------|
|--4------------4-6-3----------1---1-2-3--|-------------------|

|----------------3--|
|-----------3--5----|  Pt 1
|-3--5--6-----------|
|-------------------|


Chorus Pt 2  x? (fades out with guitar solo)
            
Submit corrections

comments powered by Disqus
↑ Back to top | Player Bass for Baby Come Back. Lyrics for acoustic guitar and electric guitar. Tablatures and chords are parodies/interpretations of the original songs. You may use it for private study, scholarship, research or language learning purposes only