» » »

Zauvijek Tabs (ver.1)

Artists:  A B C D E F G H I J K L M N O P Q R S T U V W X Y Z # 

Zauvijek Tabs (ver.1)

Plavi Orkestar
Rating:
0/5 (0 votes)

Hard to play? Try these video lessons and learn fast.
                ----------------------------------------------------------------------------
                            Zauvjek - Plavi Orkestar
-----------------------------------------------------------------------------

Tuning: Standard guitar tuning

Info: This is my first tab here and I believe it pretty accurate. Some parts I 
so it's not 100% right. But I playing this on small gigs and around the campfire and everybody 
it so enjoy the tab!

Intro - not sure, but you can improvise this part a bit since it's only around 7 
Just lightly strum the first chords which are Em and A.
I personally play the intro like this, and nobody complains:
e|------------------|
B|-----------2-2----|
G|-----------2-2----|
D|--2-2---2--2-2----|
A|--2-2--2----------| then start with the verse
E|--0-0-0-----------|

The chords in the song are Em, A, C, D and B.
Order:

Em                           A
Ljetu je kraj i mutna jesen vlada,
         Am             Em      C
Nemir i strah, raznose prah od imena tvog.
Em                      A
Kako cu sam, tu na pola puta,
          Am             Em       C
Nisam ni star, nisam ni mlad, da predam se sad.


Am         B  Em            A
Dosla ili ne, sad svejedno je,
Am         Em        D         B
Od svjetla do mraka, jedan je put,
Am        Em           D          C
Dok zivim nek' zna da, voljet cu nju,
   Em
Zauvijek.


Em                            A
Ljubav je ptica, oprezno joj pridji,
              Am            Em   C
Ona bjezi od nas i samo na cas, sleti na dlan.
Em                      A
Kako cu sam, tu na pola puta,
          Am             Em       C
Nisam ni star, nisam ni mlad, da predam se sad.


Am         B  Em            A
Dosla ili ne, sad svejedno je,
Am         Em        D         B
Od svjetla do mraka, jedan je put,
Am        Em           D          C
Dok zivim nek' zna da, voljet cu nju,
   Em
Zauvijek.

Am         B  Em            A
Došla ili ne, sad svejedno je,
Am         Em        D         B
Od svjetla do mraka, jedan je put,
Am        Em           D          C
Dok zivim nek' zna da, voljet cu nju,
Am         Em        D         B
Od svjetla do mraka, jedan je put,
Am        Em           D          C
Dok zivim nek' zna da, voljet cu nju,
  Em
Zauvijek.

And here's the solo:
E||----------------------------------------|
B||--8---7---5-------------8---7---5-------|
G||---------------5---------------------4--|
D||----------------------------------------|
A||----------------------------------------|
E||----------------------------------------|

E||----------------------------------------|
B||--8---7---5-------------8---7---5-------|
G||---------------5---------------------8--|
D||----------------------------------------|
A||----------------------------------------|
E||----------------------------------------|

E||--15---14---12-------15---14---12-------|
B||----------------13------------------12--|
G||----------------------------------------|
D||----------------------------------------|
A||----------------------------------------|
E||----------------------------------------|

E||--15---14---12-------15---17---14---15--|
B||----------------13----------------------|
G||----------------------------------------|
D||----------------------------------------|
A||----------------------------------------|
E||----------------------------------------|

E||--12~----------------------------------||
B||---------------------------------------||
G||-----------------------------------16--||
D||-------------------14--16----17--------||
A||---------------------------------------||
E||---------------------------------------||


************************************

| /   slide up
| \   slide down
| h   hammer-on
| p   pull-off
| ~   vibrato
| +   harmonic
| x   Mute note
| b   Bend
| pb  Pre-bend
| br  Bend release
| pbr Pre-bend release
| brb Bend release bend

************************************
            
Hard to play? Try these video lessons and learn fast. | Correct




comments powered by Disqus
↑ Back to top | Tablatures and chords are parodies/interpretations of the original songs. You may use it for private study, scholarship, research or language learning purposes only