» » »

Platero Y Tu, A Un Tipo Listo Tabs (ver.1)

Artists:  A B C D E F G H I J K L M N O P Q R S T U V W X Y Z # 

A Un Tipo Listo Tabs (ver.1)

Platero Y Tu Tabs
Rating:
0/5 (0 votes)
A Un Tipo Listo lessons Tabs too difficult? Try these video lessons and learn fast
                La cancion es bastante facil para mi y llevo 1 año tocando
aqui os pongo toda la cancion menos el solo que es imposible

Empezamos:

para empezar el bajo hace asi:
e |----------------|
B |----------------|
G |----------------|
D |----------------|
A |-2---2---2---2-0|
E |----------------|

y la guitarra despues de un rato haciendo el bajo eso hace esto:
E |-------------------|
B |-------------------|
G |*--7-----2-----4--*|
D |*--7-----2-----4--*|
A |---5-----0-----2---|
e |-------------------|
esto se hace unas cuantas veces (tambien se puede hacer con cejilla).
y para acabar eso hace asi:
E |----------------------|
B |----------------------|
G |*--7-----2-----------*|
D |*--7-----2-----5---7-*|
A |---5-----0-----5---7--|
e |---------------3---5--|

ahora es cuando entra la bateria con las guitarras y el bajo que hacen asi:
e |-------------------------------------------------------------------|
B |-------------------------------------------------------------------|
G |---4---4---4---4---4---4---4---------7--------------7--------------|
D |---4---4---4---4---4---4---4---------7-----7-7-7-7--7-----7-7-7-7--|
A |---2-0-2-0-2-0-2-0-2-0-2-0-2-0-0-----5-----7-7-7-7--5-----7-7-7-7--|
E |-------------------------------------------5-5-5-5--------5-5-5-5--|

eso se hace 2 veces.
cuando fito se pone a cantar hace asi:
e |----------------------------------------|
B |----------------------------------------|
G |---4------7--------------7--------------|
D |---4------7-----7-7-7-7--7-----7-7-7-7--|
A |---2------5-----7-7-7-7--5-----7-7-7-7--|
E |----------------5-5-5-5--------5-5-5-5--|

antes del solo una guitarra hace esto:
e |--5----3-----2-----3----|
B |------------------------|
G |*-----------------------|
D |*-----------------------|
A |------------------------|
E |------------------------|
la ritmica hace eso durante todo el solo.
despues de hacer eso unas veces la solista hace esto con la ritmica:
e |--8----7-----5-----7----|
B |------------------------|
G |------------------------|
D |------------------------|
A |------------------------|
E |------------------------|
esto lo hace como 2 ó 3 veces y al hacerlas se pone a hacer el solo (podeis improvisar 
como hago yo).
despues del solo la ritmica hace esto:
e |-0--2--3--2--0--2--3--2--0---|
B |-----------------------------|
G |-----------------------------|
D |-----------------------------|
A |-----------------------------|
E |-----------------------------|

y esto es toda la cancion
espero que os guste
y el solo me lo intentare sacar y ya lo pondre
para sacar bien el ritmo escucharla, es muy facil
            
Submit corrections

comments powered by Disqus
↑ Back to top | Platero Y Tu Tabs for A Un Tipo Listo. Lyrics for acoustic guitar and electric guitar. Tablatures and chords are parodies/interpretations of the original songs. You may use it for private study, scholarship, research or language learning purposes only