» » »

You're A Zombie Tabs (ver.1)

Artists:  A B C D E F G H I J K L M N O P Q R S T U V W X Y Z # 

You're A Zombie Tabs (ver.1)

Plasmatics
Rating:
0/5 (0 votes)

Tabs too difficult? Try these video lessons and learn fast.
                                                 YOU'RE A ZOMBIE
                         As recorded by Plasmatics, The
                    (From the Album MAGGOTS: THE RECORD)


Gtr I (E A D G B E)

   Intro
    Q=140
   4/4
    Gtr I
    W          H    H    4x
||-----------|-----------||
||o----------|----------o||
||-----------|-5----7----||
||--2--------|-5----7----||
||o-2--------|-3----5---o||
||--0--------|-----------||


   Verse
     S  S  S  S  S  S  S  S  S  S  S  S  S  S  S  S
||--------------------------------------------------|
||o-------------------------------------------------|
||--------------------------------------------------|
||--------------------------------------------------|
||o-12-12-12-12-13-13-12-12-10-10-12-12-13-13-12-12-|
||--10-10-10-10-10-10-10-10-10-10-10-10-10-10-10-10-|


   S  S  S  S  S  S  S  S  S  S  S  S  S  S  S  S
|--------------------------------------------------|
|--------------------------------------------------|
|--------------------------------------------------|
|--------------------------------------------------|
|-12-12-12-12-13-13-12-12-10-10-12-12-13-13-12-12--|
|-10-10-10-10-10-10-10-10-10-10-10-10-10-10-10-10--|


  S S S S S S S S S S S S S S S S   S S S S S S S S S S S S S S S S
|---------------------------------|------------------------------------||
|---------------------------------|-----------------------------------o||
|---------------------------------|------------------------------------||
|---------------------------------|------------------------------------||
|-8-8-8-8-9-9-8-8-6-6-8-8-9-9-8-8-|-8-8-8-8-9-9-8-8-6-6-8-8-9-9-8-8---o||
|-6-6-6-6-6-6-6-6-6-6-6-6-6-6-6-6-|-6-6-6-6-6-6-6-6-6-6-6-6-6-6-6-6----||


   S  S  S  S  S  S  S  S  S  S  S  S  S  S  S  S
|-------------------------------------------------|
|-------------------------------------------------|
|-------------------------------------------------|
|-------------------------------------------------|
|-12-12-12-12-13-13-12-12-10-10-12-12-13-13-12-12-|
|-10-10-10-10-10-10-10-10-10-10-10-10-10-10-10-10-|


   S  S  S  S  S  S  S  S  S  S  S  S  S  S  E
|-------------------------------------------------*|
|-------------------------------------------------*|
|-------------------------------------------------*|
|-------------------------------------------------*|
|-12-12-12-12-13-13-12-12-10-10-12-12-13-13-12----*|
|-10-10-10-10-10-10-10-10-10-10-10-10-10-10-10----*|


Duration Legend
---------------
W - whole; H - half; Q - quarter; E - 8th; S - 16th

Misc Legend
-----------
 |  - bar
||  - double bar
||o - repeat start
o|| - repeat end
*|  - double bar (ending)
 
Tempo markers -  = BPM(8/16=s8/s16)
            
Tabs too difficult? Try these video lessons and learn fast.


comments powered by Disqus
↑ Back to top | Tablatures and chords are parodies/interpretations of the original songs. You may use it for private study, scholarship, research or language learning purposes only