» » »

Psycho Tabs (ver.1)

Artists:  A B C D E F G H I J K L M N O P Q R S T U V W X Y Z # 

Psycho Tabs (ver.1)

Plasmatics
Rating:
0/5 (0 votes)

Hard to play? Try these video lessons and learn fast.
                |-------------------------------|
|-------------------------------|
|-------------------------------|     (x3)
|-------------------------------|
|--6--6-6-7--7-7-4--4-4--4-4-4--|
|--4--4-4-5--5-5-2--2-2--2-2-2--|

|--------|
|--------|
|--------|     (x4)
|--------|
|--3--2--|
|--1--0--|

|-------------------------------|
|-------------------------------|
|-------------------------------|     (x3)
|-------------------------------|
|--6--6-6-7--7-7-4--4-4--4-4-4--|
|--4--4-4-5--5-5-2--2-2--2-2-2--|

|--------|
|--------|
|--------|     (x4)
|--------|
|--3--2--|
|--1--0--|

|-------------------------------|
|-------------------------------|
|-------------------------------|     (x3)
|-------------------------------|
|--6--6-6-7--7-7-4--4-4--4-4-4--|
|--4--4-4-5--5-5-2--2-2--2-2-2--|

|--------|
|--------|
|--------|     (x4)
|--------|
|--3--2--|
|--1--0--|

|-------------------------------|
|-------------------------------|
|-------------------------------|     (x3)
|-------------------------------|
|--6--6-6-7--7-7-4--4-4--4-4-4--|
|--4--4-4-5--5-5-2--2-2--2-2-2--|

__________________________________________
Solo:

|----------------|
|77777777888888/9|
|----------------|     (x3)
|----------------|
|----------------|
|----------------|

|--------------------------|
|77777777888888/12-12---6--|
|--------------------------|
|--------------------------|
|--------------------------|
|--------------------------|

|--1/12------|
|---------5--|
|------------|     (x2)
|------------|
|------------|
|------------|
________________________________________________

|--------|
|--------|
|--------|     (x4)
|--------|
|--3--2--|
|--1--0--|

|-------------------------------|
|-------------------------------|
|-------------------------------|     (x3)
|-------------------------------|
|--6--6-6-7--7-7-4--4-4--4-4-4--|
|--4--4-4-5--5-5-2--2-2--2-2-2--|

|--------|
|--------|
|--------|     (x4)
|--------|
|--3--2--|
|--1--0--|

|-------------------------------|
|-------------------------------|
|-------------------------------|     (x3)
|-------------------------------|
|--6--6-6-7--7-7-4--4-4--4-4-4--|
|--4--4-4-5--5-5-2--2-2--2-2-2--|

Solo:
______________________________________________
|--------|
|--------|
|--1--0--|     (x4)
|--------|
|--------|
|--------|
______________________________________________

|-------------------------------|
|-------------------------------|
|-------------------------------|     (x3)
|-------------------------------|
|--6--6-6-7--7-7-4--4-4--4-4-4--|
|--4--4-4-5--5-5-2--2-2--2-2-2--|
            
Hard to play? Try these video lessons and learn fast. | Correct




comments powered by Disqus
↑ Back to top | Tablatures and chords are parodies/interpretations of the original songs. You may use it for private study, scholarship, research or language learning purposes only