>
 >
Full-meal Diner

Full-meal Diner Guitar Tabs

Plasmatics - Full-meal Diner chords, tabs, tablatures, lyrics

Guitar lessons | Add/correct | Request | Top 50 tabs Artists:  A B C D E F G H I J K L M N O P Q R S T U V W X Y Z 0-9

Full-meal Diner Guitar Tabs – Plasmatics

CD, Sheet music, Poster

Do you like Full-meal Diner? Share with your friends now
Tabs
                                 FULL-MEAL DINER
                            As recorded by Plasmatics
                   (From the Album MAGGOTS - THE RECORD)


Gtr I (E A D G B E) - 'Plasmatic guitar'

   Intro w/half time feel
    Moderate Rock Q=143
   4/4
    Gtr I
    H    +Q   E E   Q  E E H      W          +W
||----------------|-------------|----------|--------|
||o---------------|-------------|----------|--------|
||----------------|--------5----|-4--------|-(4)----|
||--2----(2)--2---|-5------5----|-4--------|-(4)----|
||o-2----(2)--2-4-|-5--4-2-3----|-2--------|-(2)----|
||--0----(0)--0-2-|-3--2-0------|----------|--------|


  H    +Q   E E   Q  E E H      W          +W
|---------------|-------------|----------|---------||
|---------------|-------------|----------|--------o||
|---------------|--------5----|-7--------|-(7)-----||
|-2----(2)--2---|-5------5----|-7--------|-(7)-----||
|-2----(2)--2-4-|-5--4-2-3----|-5--------|-(5)----o||
|-0----(0)--0-2-|-3--2-0------|----------|---------||


   Verse
    Faster Q=160
   9/8                 3/4
      PM|   PM|   PM|
    E E E E E E E E E   Q  Q  Q   8x
||--------------------|-----------||
||o-------------------|----------o||
||--------------------|-----------||
||--------------------|-7--6--5---||
||o-4-----5-----4-----|-7--6--5--o||
||--2-0-0-3-0-0-2-0-0-|-5--4--3---||


   Chorus
   4/4
    S S S S S S  S  S S S S S S S S S   S S S S S S S S S S S S S S S S
||------------------------------------|---------------------------------|
||o-----------------------------------|---------------------------------|
||------------------------------------|---------------------------------|
||--9-9-9-9-9-9-10-10-7-7-7-7-7-7-9-9-|-5-5-5-5-5-5-7-7-4-4-4-4-5-5-7-7-|
||o-7-7-7-7-7-7--8--8-5-5-5-5-5-5-7-7-|-3-3-3-3-3-3-5-5-2-2-2-2-3-3-5-5-|
||------------------------------------|---------------------------------|


  S S S S S S  S  S S S S S S S S S   S S S S S S S S q  Q     4x
|-----------------------------------|--------------------------||
|-----------------------------------|-------------------------o||
|-----------------------------------|--------------------------||
|-9-9-9-9-9-9-10-10-7-7-7-7-7-7-9-9-|-5-5-5-5-4-4-5-5-9--------||
|-7-7-7-7-7-7--8--8-5-5-5-5-5-5-7-7-|-3-3-3-3-2-2-3-3-7-------o||
|-----------------------------------|--------------------------||


Duration Legend
---------------
W - whole; H - half; Q - quarter; E - 8th; S - 16th; T - 32nd; X - 64th; a - acciaccatura
+ - note tied to previous; . - note dotted; .. - note double dotted
Uncapitalized letters represent notes that are staccato (1/2 duration)
Irregular groupings are notated above the duration line
Duration letters will always appear directly above the note/fret number it represents the
duration for.  Duration letters with no fret number below them represent rests.  Multi-
bar rests are notated in the form Wxn, where n is the number of bars to rest for.  Low
melody durations appear below the staff

Tablature Legend
----------------
 h   - hammer-on
 p   - pull-off
 b   - bend
 pb  - pre-bend
 r   - bend release (if no number after the r, then release immediately)
 /\  - slide into or out of (from/to "nowhere")
 s   - legato slide
 S   - shift slide
  - natural harmonic
[n]  - artificial harmonic
n(n) - tapped harmonic
 ~   - vibrato
 tr  - trill
 T   - tap
 TP  - trem. picking
 PM  - palm muting
\n/  - tremolo bar dip; n = amount to dip
 \n  - tremolo bar down
 n/  - tremolo bar up
/n\  - tremolo bar inverted dip
 =   - hold bend; also acts as connecting device for hammers/pulls
 <>  - volume swell (louder/softer)
 x   - on rhythm slash represents muted slash
 o   - on rhythm slash represents single note slash

Misc Legend
-----------
 |  - bar
||  - double bar
||o - repeat start
o|| - repeat end
*|  - double bar (ending)
 :  - bar (freetime)
 $  - Segno
 &  - Coda
Tempo markers -  = BPM(8/16=s8/s16), where s8 = swing 8ths, s16 = swing 16ths





Comments


Popular Plasmatics tabs & chords
Damned Chords
Masterplan Chords
12 Noon Tabs
Psycho Tabs
You're A Zombie Tabs
Damned Ukulele
Masterplan Ukulele


Song lyrics



↑ Back to top | Tablatures and chords are parodies/interpretations of the original songs. You may use it for private study, scholarship, research or language learning purposes only
© 2014 AZChords.com Contact us | Privacy policy | DMCA | Add/correct tabs | Request tabs | Top 50 tabs