>
 >
This Love

This Love Guitar Tabs

Planetshakers - This Love chords, tabs, tablatures, lyrics

Guitar lessons | Add/correct | Request | Top 50 tabs Artists:  A B C D E F G H I J K L M N O P Q R S T U V W X Y Z 0-9

This Love Guitar Tabs – Planetshakers

CD, Sheet music, Poster

Do you like This Love? Share with your friends now
ChordsTabsTabs v2Tabs v3Tabs v4Ukulele
-------------------------------------------------------------------------------
-------------------------------------------------------------------------------
Tuning: Drop D

This is my first tab, and i'm only 14.

Thanks, enjoy :)


Intro
e|---------------------------------------------------------------------------|
B|---------------------------------------------------------------------------|
G|---------------------------------------------------------------------------|
D|---------------------------------------------------------------------------|
A|---3-3-5---3-3-5~---3-3-5~---5-5-3~----------------------------------------|
D|-0-------0--------3--------5-----------------------------------------------|

this part isn't the right timing, they are just the chords.
e|---------------------------------------------------------------------------|
B|---------------------------------------------------------------------------|
G|---------------------------------------------------------------------------|
D|-0000000000-33333-55555----------------------------------------------------|
A|-0000000000-33333-55555-x2-------------------------------------------------|
D|-0000000000-33333-55555----------------------------------------------------|

Verse
lead intro keeps playing
e|------------------------------------------------------------------------------|
B|------------------------------------------------------------------------------|
G|------------------------------------------------------------------------------|
D|-0--0---3--5-5----0-0000000x-3-333x-555555x-----------------------------------|
A|-0--0---3--5-5-x2-0-0000000x-3-333x-555555x-----------------------------------|
D|-0--0---3--5-5----0-0000000x-3-333x-555555x-----------------------------------|

Pre-Chorus
(there is no one like you)
e|---------------------------------------------------------------------------|
B|---------------------------------------------------------------------------|
G|---------------------------------------------------------------------------|
D|-0000-2/3333/5555/88/11x---0000-2/3333/5555/88\77x-------------------------|
A|-0000-2/3333/5555/88/11x---0000-2/3333/5555/88\77x-x2----------------------|
D|-0000-2/3333/5555/88/11x---0000-2/3333/5555/88\77x-------------------------|

Chorus
make sure there is no delay and the notes are really sharp
e|---------------------------------------------------------------------------|
B|---------------------------------------------------------------------------|
G|-------------------5-5-5-55-4-4-4-44---------------------------------------|
D|-0-0-0-00-3-3-3-33-5-5-5-55-5-5-5-55-x4--8--10-11-11-----------------------|
A|-0-0-0-00-3-3-3-33-3-3-3-33-2-2-2-22-----8--10-11-11-----------------------|
D|-0-0-0-00-3-3-3-33-----------------------8--10-11-11-----------------------|

Repeat in Order:Intro,Verse 2,Pre-Chorus,Chorus

Verse 3
e|---------------------------------------------------------------------------|
B|---------------------------------------------------------------------------|
G|---------------------------------------------------------------------------|
D|---------------------------------------------------------------------------|
A|---3-3-5~---3-3-5~---3-3-5~---5-55-3~---3-3-5~---3h5p3h5~--3-3-5~---5-5-3~-|
D|-0--------0--------3--------5---------0-------0---------3--------5---------|

e|---------------------------------------------------------------------------|
B|---------------------------------------------------------------------------|
G|---------------------------------------------------------------------------|
D|-0-000000x-3-333/55555x-0-000000-33333/555555------------------------------|
A|-0-000000x-3-333/55555x-0-000000-33333/555555------------------------------|
D|-0-000000x-3-333/55555x-0-000000-33333/555555------------------------------|

Solo
e|---------------------------------------------------------------------------|
B|-10-10----10-10----11-10-----------------------10--------------------------|
G|-10-10----10-10---------12-10-------------10-12----------------------------|
D|------12~------12~-----------12-11-9-11-12---------------------------------|
A|---------------------------------------------------------------------------|
D|---------------------------------------------------------------------------|x2

e|-13p10-----13p10-----13p10----------------13p10-----13p10------------------|
B|------13p10-----13p10-----13p10----------------13p10-----13p10--13~-12~----|
G|-------------------------------13p10-12p10---------------------------------|
D|---------------------------------------------------------------------------|
A|---------------------------------------------------------------------------|
D|---------------------------------------------------------------------------|

e|-13p10-12p10---------------------------10~-12-13-15-12-13-15-12-13-15--17~-|
B|------------13p10-----------------13p10------------------------------------|
G|-----------------13p10-12p10-13p10-----------------------------------------|
D|---------------------------------------------------------------------------|
A|---------------------------------------------------------------------------|
D|---------------------------------------------------------------------------|
Chorus 1
not as loud as normal chorus
e|---------------------------------------------------------------------------|
B|---------------------------------------------------------------------------|
G|-------------------5-5-5-55-4-4-4-44---------------------------------------|
D|-0-0-0-00-3-3-3-33-5-5-5-55-5-5-5-55-x2--8--10-11-11-----------------------|
A|-0-0-0-00-3-3-3-33-3-3-3-33-2-2-2-22-----8--10-11-11-----------------------|
D|-0-0-0-00-3-3-3-33-----------------------8--10-11-11-----------------------|

Chorus 2
Go Crazy
e|---------------------------------------------------------------------------|
B|---------------------------------------------------------------------------|
G|-------------------5-5-5-55-4-4-4-44---------------------------------------|
D|-0-0-0-00-3-3-3-33-5-5-5-55-5-5-5-55-x2------------------------------------|
A|-0-0-0-00-3-3-3-33-3-3-3-33-2-2-2-22---------------------------------------|
D|-0-0-0-00-3-3-3-33---------------------------------------------------------|

e|---------------------------------------------------------------------------|
B|---------------------------------------------------------------------------|
G|---------------5-5-5-55-4-4-4-44-------------------------------------------|
D|-0-0--3-3-3-33-5-5-5-55-5-5-5-55-x2--8--10-11-11---------------------------|
A|-0-0--3-3-3-33-3-3-3-33-2-2-2-22-----8--10-11-11---------------------------|
D|-0-0--3-3-3-33-----------------------8--10-11-11---------------------------|

Outro
Same as intro, end on D


************************************

| /   slide up
| \   slide down
| h   hammer-on
| p   pull-off
| ~   vibrato
| +   harmonic
| x   Mute note
| b   Bend
| pb  Pre-bend
| br  Bend release
| pbr Pre-bend release
| brb Bend release bend

************************************





Comments


Popular Planetshakers tabs & chords
Get Up 1 Chords
No Compromise Chords
No Tomorrow Chords
Rain Down 1 Chords
No Compromise 1 Tabs
Hope Of All Hearts Ukulele
In The Highest Ukulele
Its You Ukulele
Perfect Day Ukulele
Pick It Up Ukulele


Song lyrics



↑ Back to top | Tablatures and chords are parodies/interpretations of the original songs. You may use it for private study, scholarship, research or language learning purposes only
© 2014 AZChords.com Contact us | Privacy policy | DMCA | Add/correct tabs | Request tabs | Top 50 tabs