>
 >
Bring It On

Bring It On Guitar Tabs

Planetshakers - Bring It On chords, tabs, tablatures, lyrics

Guitar lessons | Add/correct | Request | Top 50 tabs Artists:  A B C D E F G H I J K L M N O P Q R S T U V W X Y Z 0-9

Bring It On Guitar Tabs – Planetshakers

CD, Sheet music, Poster

Do you like Bring It On? Share with your friends now
Tabs
-------------------------------------------------------------------------------
-------------------------------------------------------------------------------

Tuning: Drop D

Intro

Guitar 1

e|--------------------------------|
B|--------------------------------|
G|--------------------------------|
D|----5-4------------5-4----------| (x2)
A|--------3--------------3-3-5----|
D|-0--------------0---------------|

e|-----------------------------------------------------|
B|-----------------------------------------------------|
G|-----------------------------------------------------|
D|-----------------------------------5-4----------xx-xx| Play intro twice
A|-----------0--------0------------------3-3-3-5--xx-xx|
D|-3-3-5-3-5----5-3-5---5-3-------0---------------xx-xx|

Intro (Play second time only)

Guitar 2

e|---------------------------|
B|---------------------------|
G|---------------------------|
D|-0-xx--10-10-10------------| (x4)
A|-0-xx--10-10-10------------|
D|-0-xx--10-10-10------------|

e|--------------------------------------------------|
B|--------------------------------------------------|
G|--------------------------------------------------|
D|-3-3-5-3-5-7-----5-3-5-7-5-3---0-xx--10-10-10-12--|
A|-3-3-5-3-5-7-----5-3-5-7-5-3---0-xx--10-10-10-12--|
D|-3-3-5-3-5-7-----5-3-5-7-5-3---0-xx--10-10-10-12--|

Intro (Play second time only)

Guitar 3

e|------------------------------|
B|------------------------------|
G|----12-11---------12-11-------|
D|-12-------10---12-------10-10-| (x2)
A|------------------------------|
D|------------------------------|

e|-----------------------------------------------------------------------|
B|-----------------10--------------10------------------------------------|
G|--10-10-12-10-12--------12-10-12----12-10-------12-11------------------|
D|---------------------------------------------12-------10-10-10-12------|
A|-----------------------------------------------------------------------|
D|-----------------------------------------------------------------------|

Verse

Guitar 1

e|---------------------------------------|
B|---------------------------------------|
G|---------------------------------------|
D|---4-(x4)--4-(x4)-5-(x4)-3-(x4)-s-5----| (x2)
A|---5-------3------2------1------s-3----|
D|---------------------------------------|

Pre-Chorus

Guitar 1

e|----------------------------------------------------------|
B|----------------------------------------------------------|
G|----------------------------------------------------------|
D|--------4---4--------4---4---------5---5---------5---5----|
A|--2-2-2---2-----------------------------------------------|
D|---------------4-4-4---4-----5-5-5---5-----5-5-5---5------|
    * * *   *    * * *   *     * * *   *     * * *   *
e|----------------------------------------------------------------|
B|----------------------------------------------------------------|
G|----------------------------------------------------------------|
D|--------4---4------------4---4---5--(x8)--5--(x4)----7-9-----0--|
A|--2-2-2---2----------------------5--------5----------7-9-----0--|
D|-------------------4-4-4---4-----5--------5----------7-9-----0--|
    * * *   *        * * *   *     *

Guitar 2

e|--------------------------------------|
B|--------10---10-----------10---10-----|
G|--7-7-7----7----7-7-7-7-7----7----7-7-| (x6)
D|--------------------------------------|
A|--------------------------------------|
D|--------------------------------------|
    * * *    *    * * * * *    *    * *
e|---------------------------|
B|--9-9-9-9-9-7---7----------|
G|---------------------------|
D|---------------------------|
A|---------------------------|
D|---------------------------|

Chorus

Guitar 1 (figure out strumming on own)

e|---------------------------|
B|---------------------------|
G|--7--5-----3--5------------|
D|--7--5--5--3--5------------|
A|--5--3--5--1--3------------|
D|--------5------------------|

e|---------------------------|
B|---------------------------|
G|--7--5--------3--5---------|
D|--7--5--3--5--3--5---------|
A|--5--3--3--5--1--3---------|
D|--------3--5---------------|

Guitar 2

e|---------------------------|
B|--10-----------------------| (Repeat over. And over. and over.)
G|--7------------------------|
D|---------------------------|
A|---------------------------|
D|---------------------------|

Post-Chorus

Guitar 1

e|-------------------------------------------------|
B|-------------------------------------------------|
G|-------------------------------------------------|
D|----5-4------------5-4--------------5-4----------|
A|--------3--------------3-3-5------------3-3-3-5--|
D|-0--------------0----------------0---------------|

Guitar 2

e|---------------------------|
B|---------------------------|
G|---------------------------|
D|-0-xx--10-10-10------------| (x2)
A|-0-xx--10-10-10------------|
D|-0-xx--10-10-10------------|


e|---------------------------|
B|---------------------------|
G|---------------------------|
D|-0-xx--10-10-10-12---------|
A|-0-xx--10-10-10-12---------|
D|-0-xx--10-10-10-12---------|



Repeat Verse,
Pre-Chorus, (only play the un-muted note once per riff, as opposed to twice)
Chorus

Bridge

Guitar 1

e|--------------------------------------------------|
B|--------------------------------------------------|
G|--------------------------------------------------|
D|---------------3----5s7-----------------3----2-0--|
A|--5---0-3--5---------------5---0-3--5-------------|
D|--------------------------------------------------|

e|-----------------------------------------------|
B|-----------------------------------------------|
G|-----------------------------------------------|
D|---------------3----5s7------------------x---x-| (x2, second time dont do the chucks 
at the end)
A|--5---0-3--5---------------5---0-3-5-----x---x-|
D|-----------------------------------------x---x-|

Do this again, but doing constant eigth notes instead.

e|----------------------------------------------------|
B|----------------------------------------------------|
G|----------------------------------------------------|
D|--0-(x8)-3-(x6)-5h7--0-(x8)-3-(x6)-2-0---0-(x16)----|
A|--0------3------5h7--0------3------2-0---0----------|
D|--0------3------5h7--0------3------2-0---0----------|

Guitar 2

e|---------------------------|
B|-10-(x4)-------------------|
G|-10------------------------|
D|---------12----------------| (Repeat about 3)
A|---------12----------------|
D|---------------------------|

e|---------------------------|
B|---------------------------|
G|---------------------------|
D|-10-(x3)-------------------|
A|-10------------------------|
D|---------------------------|

Final Chorus

Guitar 1

e|---------------------------|
B|--7----5-------3--5--------|
G|------------4--------------|
D|---------------------------|
A|--5----3-------1--3--------|
D|------------5--------------|

e|-------------------------------------|
B|--7----5-----------------------------|
G|-------------------------3-(x3-5-(x2)|
D|-----------3-(x3)-5-(x5)-3-----5-----|
A|--5----3---3------5------1-----3-----|
D|-----------3------5------------------|

Repeat Chorus and Intro





Comments


Popular Planetshakers tabs & chords
Better Than Life Chords
Fall In This Place Chords
Hear The Sound Chords
Hope Of All Hearts 2 Chords
All For Love Ukulele
Like A Fire Ukulele
Redeemer Ukulele
Salvation Ukulele
Strength Of My Life Ukulele
Take Me Ukulele


Song lyrics



↑ Back to top | Tablatures and chords are parodies/interpretations of the original songs. You may use it for private study, scholarship, research or language learning purposes only
© 2014 AZChords.com Contact us | Privacy policy | DMCA | Add/correct tabs | Request tabs | Top 50 tabs