» » »

Planet Shakers, No Compromise Bass tabs (ver.1)

Artists:  A B C D E F G H I J K L M N O P Q R S T U V W X Y Z # 

No Compromise Bass tabs (ver.1)

Planet Shakers Tabs
Rating:
0/5 (0 votes)
No Compromise lessons Tabs too difficult? Try these video lessons and learn fast
                No Compromise - Planetshakers


Tuning:Drop D

Intro

G|-------------------|
D|-------------------|     x4
A|-----------55-5555-|
d|-0--7-5-30---------|

Verse

G|----------------------------|
D|----------------------------|    x2
A|-55---5/33---3/11---1/33-33-|
d|----------------------------|

Pre-chorus

G|-----------------|
D|-----------------|  x2
A|--------------55-|
d|-00-000-00000----|

Chorus

G|------------------------------------------------------|
D|------------------------------------------------------|
A|----------------------------------------------313531--|
d|-0--785--1010-0--785-32-0--785-1010-88888888-3------0-|

(back to intro)

Bridge

G|------------------|
D|------------------|
A|-----------35-35--|
d|-0--7-5-30--------|

Building it up 

G|---------|
D|---------|
A|---------|
E|-0-3-5-7-|

Then...

G|--------------------------------------------------------------------------|
D|--------------------------------------------------------------------------|
A|---------------35-35------------------------------------------------------|
d|-000-775530000-----------------------------------------------------------|

Chorus 2

G|-------------------------------------------------------------------|
D|-------------------------------------------------------------------|
A|-------------------------------------------------------------------|
d|-0--785-1010-88888888-3/0----00077885555510101010-0007788555553322-|

G|-------------------------------------|
D|-------------------------------------|
A|------------------------------313531-| 
d|-00077885555510101010888888883-------|

Outro

G|----------------|
D|----------------|  x3
A|----------55555-|
E|-0-7-5-30-------|

G|--------------|
D|--------------|  
A|--------------|
E|-0-7-5-30--0--|
            

comments powered by Disqus
↑ Back to top | Planet Shakers Bass for No Compromise. Lyrics for acoustic guitar and electric guitar. Tablatures and chords are parodies/interpretations of the original songs. You may use it for private study, scholarship, research or language learning purposes only